Oops, an error
Loading. Please wait.

Kroplą Deszczu chords

1,042 views 12 this week
no commentswrite comment
1 2 3 4 5
x 4
add to favorites
×
Save as Personal and add changes to this tab that will be seen only by you. Learn more ›
×
You can save this tab as Personal to edit and correct it or add notes. All changes will be seen only by you. Learn more »
launch autoscroll
font size
0
reset
transpose
0
reset
simplify chords
display chords
guitar tuner
edit
Autoscroll
slow
fast
+/-
esc
set tempo
stop
Author
Strumming
There is no strumming pattern for this song yet. and get +5 IQ
Intro: Bm|Asus2|G|Asus2| x2


Zwrotka 1:
Bm                  Asus2   F#m                  Em
Tak to ja – widzisz bywa tak, w zimnym deszczu posłusznie moknę
Bm                         Asus2     F#m                        Em
Za rogiem człowiek – on to lepiej zna, co znaczy czekać – on tu dłużej moknie
Bm        Asus2         F#m     G    Asus2
Wpisany w los milczenia łyk zapisany wierszem
Bm    F#m                Em7
Poetą mistrz – a błaznem ja z datą wczorajszego dnia


Refren: 
Bm                 D                G           Asus2         F#m
Kroplą deszczu namaluję cię a potem długo sam – sam w to nie uwierzę
Bm                     D                        Em7            G           Asus2
Kroplą deszczu spłynie twoja twarz, w tej kropli będę ja – i z sobą mnie zabierzesz


Przejście: Bm|Asus2/B|G/B|Asus2/B| x2


Zwrotka 2:
Bm               Asus2/B      F#m                  Em 
Tak to ja – moim sługą deszcz, wielkich powstań i upadków mężem
Bm               Asus2/B        F#m               Em7
Mrocznych pieśni zapisanych nut, swoich marzeń otępiałym więźniem

Tak to ja – a przy mnie twoja twarz


Refren: 
Bm                 D                G           Asus2         F#m
Kroplą deszczu namaluję cię a potem długo sam – sam w to nie uwierzę
Bm                     D                        Em7            G           Asus2
Kroplą deszczu spłynie twoja twarz, w tej kropli będę ja – i z sobą mnie zabierzesz

Przejście 2: Bm|Asus2/B|G/B|Asus2/B|

Solo:
Bm              Asus2/B F#m                                Em
-------2---0-2-|-------|-9-10-9-7-9-----------------------|----------
-----3---3-----|-5-3-2-|------------7------------------10-|-12-------
---4-----------|-------|--------------9-7---------9-11----|----------
-4-------------|-------|------------------11-9-11---------|----12-11-
---------------|-------|----------------------------------|----------
---------------|-------|----------------------------------|----------

Bm                        Asus2/B              F#m                       Em                        Bm
-10-------10-------10----|-9------9------9----|-14-------14-------14----|-15-------15----14-12-10-|-9-7-
----12-------12-------12-|---10-----10-----10-|----14-------14-------14-|----17-------17----------|-----
-------11-------11-------|------9------9------|-------14-------14-------|-------16----------------|-----
-------------------------|--------------------|-------------------------|-------------------------|-----
-------------------------|--------------------|-------------------------|-------------------------|-----
-------------------------|--------------------|-------------------------|-------------------------|-----


Bm        Asus2/B       F#m     G    Asus2
Wpisany w los milczenia łyk zapisany wierszem
Bm    F#m                Em7
Poetą mistrz – a błaznem ja z datą wczorajszego dnia


Refren: x2
Bm                 D                G           Asus2         F#m
Kroplą deszczu namaluję cię a potem długo sam – sam w to nie uwierzę
Bm                     D                        Em7            G           Asus2
Kroplą deszczu spłynie twoja twarz, w tej kropli będę ja – i z sobą mnie zabierzesz

Bm D          G        Asus2       F#m
     Tam będę ja – i z sobą mnie zabierzesz
Bm D          Em       G         Bm
     Tam będę ja – i z sobą mnie zabierzesz

            
            
Suggest correction
Creating personal tab
Creating personal tab
You can edit any tab online and save it as your Personal.

You can edit, replace or remove any tab part or add personal notes – all changes will be seen only by you.

Personal tabs can be accessed anytime from any device, even offline.
Learn more »
comments
print report bad tab
guest
You may want to rate the tab now too:
select rating
Wanna post a correction for this tab? Suggest correction