Oops, an error
Loading. Please wait.

Nationen - Falska Människor chords

370 views 1 this week
no commentswrite comment
1 2 3 4 5
3 more votes to show rating
add to favorites
×
Save as Personal and add changes to this tab that will be seen only by you. Learn more ›
×
You can save this tab as Personal to edit and correct it or add notes. All changes will be seen only by you. Learn more »
launch autoscroll
font size
0
reset
transpose
0
reset
simplify chords
display chords
guitar tuner
edit
Autoscroll
slow
fast
+/-
esc
set tempo
stop
Author
Difficulty
Strumming
There is no strumming pattern for this song yet. and get +5 IQ
Nationen - Falska Människor
Standard tuning : eADGBE

Chords used: G#sus4, Bsus4, Bm, C#m
x = Muted

[Intro]
E|:-------5-5-3-1---5-5-3-1---3-3--1-3-5-3-5-3----------------------:|
B|:-3-1-3---------3---------3------------------3--------------------:|
G|:-----------------------------------------------------------------:|
D|:-----------------------------------------------------------------:|
A|:-----------------------------------------------------------------:|
E|:-----------------------------------------------------------------:|

There is two ways of playing this song.

Version 1. (Original Version)
E|:-4-44--xxx--7-77--xxx--7-77--xxx--9---xx--7--xx-:|
B|:-4-44--xxx--7-77--xxx--7-77--xxx--9---xx--7--xx-:|
G|:-6-66--xxx--9-99--xxx--7-77--xxx--9---xx--7--xx-:|
D|:-6-66--xxx--9-99--xxx--9-99--xxx--11--xx--9--xx-:|
A|:-4-44--xxx--7-77--xxx--9-99--xxx--11--xx--9--xx-:|
E|:-4-44--xxx--7-77--xxx--7-77--xxx--9---xx--7--xx-:|

Version 2. (Easier Version)
E|:-4-44--xxx--7-77--xxx--2-22--xxx--4---xx--2--xx-:|
B|:-4-44--xxx--7-77--xxx--2-22--xxx--6---xx--4--xx-:|
G|:-6-66--xxx--9-99--xxx--4-44--xxx--6---xx--4--xx-:|
D|:-6-66--xxx--9-99--xxx--4-44--xxx--4---xx--2--xx-:|
A|:-4-44--xxx--7-77--xxx--2-22--xxx--4---xx--2--xx-:|
E|:-4-44--xxx--7-77--xxx--2-22--xxx--4---xx--2--xx-:|

For the easier version just change C#m to G#sus4

Alla falska jävla människor som säger att dom kan
hålla löften för att sedan sätta alla ord i brand
hugga knivar i ryggen på varenda jävla vän
snacka skit om någon annan sätta vänskaper i kläm

G#sus4, Bsus4, Bm, C#m, Bm x2

G#sus4                   Bsus4 
För mycket folk är falska nuförtiden
Bm                         C#m  Bm    C#m
snackar skit och ljuger bakom ryggen på en, fuckad shit
G#sus4                     Bsus4 
så jag sätter mig ner ensam hemma med en flaska pripps,
Bm                         C#m  Bm    C#m
halsar kvickt för gamla minnen, sluta dra ner mitt liv för du tappat ditt
G#sus4                     Bsus4  
Hoppas du får hiv eller dör, kör din bil i en sjö,
Bm                         C#m  Bm    C#m
hoppas ditt hela fucking liv blir förstört
G#sus4                     Bsus4  
för jag pallar inte längre med den skiten du gör
Bm                         C#m  Bm    C#m
du har bränt din sista bro så ba glid till nån ö
G#sus4                     Bsus4 
stick iväg långt som fan och kom aldrig tillbaks
Bm                         
så kan allting bli bra, där är sanningen dawg
C#m  Bm    C#m
för det fanns inget kvar så jag säljer din skuld nu till krama ditt as
     
      G#sus4                     Bsus4            
Alla falska jävla människor som säger att dom kan
      Bm                         C#m  Bm    C#m
hålla löften för att sedan sätta alla ord i brand
      G#sus4                     Bsus4  
hugga knivar i ryggen på varenda jävla vän
       Bm                         C#m  Bm    C#m
snacka skit om någon annan sätta vänskaper i kläm

G#sus4                   Bsus4   
Shit mannen kolla på han killen är kaxig
Bm                         C#m  Bm    C#m
men jag vet att han är fake typ som illuminati
G#sus4                     Bsus4  
för jag har gått genom berg och skogar för att finna sanning
Bm                         C#m  Bm    C#m
och i allt skitsnack som du lagt har det varit din inblandning
G#sus4                     Bsus4   
med i bilden och jag ser det hela tiden även fast jag inte vill det
Bm                         C#m  Bm    C#m
allt skitsnack är omkring dig
G#sus4                     Bsus4 
så jag signar ut nu, ja yeah for fan
Bm                         C#m  Bm    C#m
för jag pallar inte alla människor som inte kan

      G#sus4                     Bsus4            
Alla falska jävla människor som säger att dom kan
      Bm                         C#m  Bm    C#m
hålla löften för att sedan sätta alla ord i brand
      G#sus4                     Bsus4  
hugga knivar i ryggen på varenda jävla vän
      Bm                         C#m  Bm    C#m
snacka skit om någon annan sätta vänskaper i kläm

G#sus4                   Bsus4  
Personligen så har jag vetenskap
Bm                         C#m  Bm    C#m
att människor inte beter sig bra
G#sus4                   Bsus4   
en ärlig blick är bara en fasad
Bm                         C#m  Bm    C#m
tusen ord men det blir inget av
G#sus4                   Bsus4 
sanningen sugs ut som ett drenage
Bm                         C#m  Bm    C#m
förtroendet fräter och det skapar läckage
G#sus4                   Bsus4 
transparenta ord slår tillbaks en dag
Bm                         C#m  Bm    C#m
för du kan reparera speglar men finns sprickor kvar

      G#sus4                     Bsus4            
Alla falska jävla människor som säger att dom kan
      Bm                         C#m  Bm    C#m
hålla löften för att sedan sätta alla ord i brand
      G#sus4                     Bsus4  
hugga knivar i ryggen på varenda jävla vän
      Bm                         C#m  Bm    C#m
snacka skit om någon annan sätta vänskaper i kläm

G#sus4, Bsus4, Bm, C#m, Bm, G#sus4 x1

[Outro]
E|:-------5-5-3-1---5-5-3-1---3-3--1-3-5-3-5-3----1------------------:|
B|:-3-1-3---------3---------3------------------3----3----------------:|
G|:------------------------------------------------------------------:|
D|:------------------------------------------------------------------:|
A|:------------------------------------------------------------------:|
E|:------------------------------------------------------------------:|

            
            
Suggest correction
Creating personal tab
Creating personal tab
You can edit any tab online and save it as your Personal.

You can edit, replace or remove any tab part or add personal notes – all changes will be seen only by you.

Personal tabs can be accessed anytime from any device, even offline.
Learn more »
Give kudos to tab author, rate the tab!
1 2 3 4 5
comments
print report bad tab
guest
You may want to rate the tab now too:
select rating
Wanna post a correction for this tab? Suggest correction