Oops, an error
Loading. Please wait.

Flinke Hände Flinke Füße tab

version 1
version 1

Whole song

Interactive

286 views 1 this week
no commentswrite comment
1 2 3 4 5
3 more votes to show rating
add to favorites
×
Save as Personal and add changes to this tab that will be seen only by you. Learn more ›
×
You can save this tab as Personal to edit and correct it or add notes. All changes will be seen only by you. Learn more »
launch autoscroll
font size
0
reset
how to read this tab
guitar tuner
edit
Autoscroll
slow
fast
+/-
esc
set tempo
stop
Author
Difficulty
intermediate
                                 Flinke Hände                                   



     1.+Kriecht aus   eur- em      Schnek-  ken- haus,   
     2.+Steht   nicht ab-  seits,  schließt den  Kreis,- 
     3.+Seht    die   Welt mit     wa-      chen Augen,  
     4.+Singt   die   Lie- der,    tanzt,   seid heiter, 
     Dm                                                  
     E          E     E    E       E        E    Q       
E||-----------------------------------------------------|
B||-----------------------------------------------------|
G||--7----------7-----7----9------10-------10---10------|
D||--0----------0-----0----2-------3--------3----3------|
A||-----------------------------------------------------|
E||-----------------------------------------------------|


  zieht die al-    ten Klei-  der    aus.    Wir  
  je-   der neu-   e   Freun- de     weiß.   Wir  
  lasst die Sprü-  che,die    nichts taugen. Wir  
  sagt  es  al-    len Leu-   ten    weiter. Wir  
  A7                   Dm                         
  E     E   E      E   E      E      E.      S    
-------------------------------------------------|
-------------------------------------------------|
--9-----9---7----------7------7------7-----------|
--2-----2---0-----11---0------0------0-------7---|
-------------------4-------------------------0---|
-------------------------------------------------|


  wol-  len  fair  und        ehr- lich  sein,-      
  brau- chen Men-  schen,+die mit  uns   geh'n,      
  glau- ben  an    den        gu-  ten   Geist,      
  ha-   ben  Hoff- nung,      die  uns   trägt,+die- 
  Dm                                                 
  E     E    E     E          E    E     Q           
----------------------------------------------------|
----------------------------------------------------|
--7-----7----7-----7----------7----9----10----------|
--0-----0----0-----0----------0----2-----3----------|
----------------------------------------------------|
----------------------------------------------------|


  set-     zen uns-   re Kräf- te    ein.      
  die+Welt mit ih-    remHer-  zen   seh'n.    
  der      den rech-  tenPfad  uns   weist.    
  Brük-    ken zu-    denMen-  schen schlägt.  
  A7                                           
  E        E   E      E  E     E     Q         
----------------------------------------------|
----------------------------------------------|
--9--------9---7---------7-----7-----7--------|
--2--------2---0-----11--0-----0-----0--------|
----------------------4-----------------------|
----------------------------------------------|


   Kommt lasst uns denAn- fang  ma- chen. 
   F                                      
   E     E     E   E  E   E     E   E     
----------------------8---8--------------|
------------------10--1---1----11--10----|
--10----10----10---2------------3---2----|
---3-----3-----3-------------------------|
-----------------------------------------|
-----------------------------------------|


  Wir pro- bie-  ren neu-e   Sa- chen.Wir  
  C                  A                     
  E   E    E     E   E   E   S   S    E    
-----------8------------------------------|
--8---8----1----11--10---8----------------|
--0---0----------3---2---0--10--10--------|
-----------------------------3---3----7---|
--------------------------------------0---|
------------------------------------------|


  brau- chen Mut und Fan- ta-  sie, sonst   än- dern wir  dirEr- de nie!-  
  Dm                                        A7                             
  E     E    E   E   E    E    E.   S       E   E    E    E  E   E  Q      
-----------------------------------------|--------------------------------|
-----------------------------------------|--------------------------------|
--7-----7----7---7---7----9---10---10----|--9---9----7-------7---7--7-----|
--0-----0----0---0---0----2----3----3----|--2---2----0---11--0---0--0-----|
-----------------------------------------|----------------4---------------|
-----------------------------------------|--------------------------------|


                 Flin- ke      Hän- de,      flin- ke  
  Dm   C    A7                 Dm                      
  Q    Q    Q    E     E       Q    H        E     E   
--------------------------||--------------------------|
--------------------------||--------------------------|
--------------------------||*--7----7--------7-----9--|
-----------------7-----7--||*--0----0--------0-----2--|
-----------------0-----0--||--------------------------|
--------------------------||--------------------------|


   Fü-   ße,       wa- che   Au-  gen,     wei- tes     Herz,              
   F                         Gm                         F        A7        
   Q     H         E   E     Q    H        E    E       H        H         
--------------------------|----------------8--------|---------------------|
--------------------------|--8----8--------1----8---|--10--------L--------|
--10----10--------10--10--|--0----0-------------0---|---2--------L--------|
---3-----3---------3---3--|-------------------------|---------------------|
--------------------------|-------------------------|---------------------|
--------------------------|-------------------------|---------------------|


   Freund- schaft, die   zu-     sam-  men    hält, so ver-  
   Bb                            F            Dm             
   Q       Q       Q     Q       Q     E  E   Q     E  E     
--10------10------10----10----|--8--------------------------|
---3-------3-------3-----3----|--1----10--8------------8----|
------------------------------|--------2--0--10----10--0----|
------------------------------|---------------3-----3-------|
------------------------------|-----------------------------|
------------------------------|-----------------------------|


   än-  dern  wir  die     Welt.           Flin- ke      Welt                
   A7                      Dm    C    A7                 Dm                  
   Q    Q     Q    Q       Q     Q    Q    E     E       H.           Q      
------------------------|----------------------------||--------------------||
--10----8---------------|----------------------------||--------------------||
---2----0----10----9----|--7-----L------------------*||--7-----------------||
--------------3----2----|--0-----L---------7-----7--*||--0-----------------||
------------------------|------------------0-----0---||--------------------||
------------------------|----------------------------||--------------------||




Duration Legend
---------------
W - whole
H - half
Q - quarter
E - 8th
S - 16th
T - 32nd
X - 64th
. - note dotted
|-n-|  - n-tuplets
Suggest correction
Creating personal tab
Creating personal tab
You can edit any tab online and save it as your Personal.

You can edit, replace or remove any tab part or add personal notes – all changes will be seen only by you.

Personal tabs can be accessed anytime from any device, even offline.
Learn more »
Give kudos to tab author, rate the tab!
1 2 3 4 5
comments
print report bad tab
guest
You may want to rate the tab now too:
select rating
Wanna post a correction for this tab? Suggest correction