Oops, an error
Loading. Please wait.

Revolución tab

by P.O.D.
64 views 1 this week
no commentswrite comment
1 2 3 4 5
3 more votes to show rating
add to favorites
×
Save as Personal and add changes to this tab that will be seen only by you. Learn more ›
×
You can save this tab as Personal to edit and correct it or add notes. All changes will be seen only by you. Learn more »
launch autoscroll
font size
0
reset
how to read this tab
guitar tuner
edit
Autoscroll
slow
fast
+/-
esc
set tempo
stop
-------------------------------------------------------------------------------
                             REVOLUCION - P.O.D. 
-------------------------------------------------------------------------------
Tabbed by: S0ulJah
E-mail: cslehmann@liberty.edu

Tuning: Drop Standard

Thanks for checking out my tab! The only part I wasn't completely sure about was the guitar 
riff in the bridge.
With all the effects and singing it was hard to make out the exact notes. 
Hope you all like it and feel free to let me know if I made any mistakes. Enjoy!

Intro/Verse 1/Verse 2:

D|-----------------------------------------------------------|
A|---------------------------------------------------------*-|
F|-------------------------------------7-----5-5x--5-5-5-----|
C|-4--4-4-4-4-4-4-4-4-4-4-4-4-4-4---5--7--7--5-5x--5-5-5-----|
G|-4--4-4-4-4-4-4-4-4-4-4-4-4-4-4---5--5--7--3-3x--3-3-3---*-|
D|-2--2-2-2-2-2-2-2-2-2-2-2-2-2-2---3-----5------------------| Repeat x4

Pre-Chorus:

D|-----------------------------------------------------------|
A|---------------------------------------------------------*-|
F|-------------------------------------7-----5-5x--5-5-5-----|
C|-4--------------------------------5--7--7--5-5x--5-5-5-----|
G|-4--------------------------------5--5--7--3-3x--3-3-3---*-|
D|-2--2-2-2-2-2-2-2-2-2-2-2-2-2-2---3-----5------------------| Repeat x4
      x x x x x x x x x x x x x x 

Chorus:

Guitar 1 -
                                  2                                      1    2
D|-------------------------------------------------------------------------|------------|
A|--------------------------------*---------------------------------------*|-*----------|
F|-7--7-7-7-7-7-7-7-7-7-7-7-7-7-7---10--10-10-10-10-10-10---5--5-5-5-5-5/--|--10-7-5----|
C|-7--7-7-7-7-7-7-7-7-7-7-7-7-7-7---10--10-10-10-10-10-10---5--5-5-5-5-5/--|--10-7-5----|
G|-5--5-5-5-5-5-5-5-5-5-5-5-5-5-5-*-8---8--8--8--8--8--8----3--3-3-3-3-3/-*|-*-8-5-3----|
D|-------------------------------------------------------------------------|------------|
                                                                 Repeat x 3

Guitar 2 -

D|----------------------------------------------------------------------------------------------|
A|10-10-10---------------10--10-10----------------10-10-10---------------10--10-10--------------|
F|----------12-10-9-10-------------12-10-9-10--12---------12-10-9-10-------------12-10-9-10-----|
C|--------------------10--------------------------------------------10---------------------12-10|
G|----------------------------------------------------------------------------------------------|
D|----------------------------------------------------------------------------------------------|
 (Listen for timing of the notes, for some reason in approval it didn't like the way I had it so 
   the rhythm isn't incorporated)

Bridge:

(Upstroke/Reggae style)

D|-7x-7x-7x-7x--9x--9x---10x-10x-------|
A|-7x-7x-7x-7x--10x-10x--12x-12x-------|
F|-7x-7x-7x-7x--11x-11x--12x-12x-------|
C|-------------------------------------|
G|-------------------------------------|
D|-------------------------------------| Repeat x4
(Keyboard plays this part in the recording, but Marcos plays this in the live version)

Main Guitar Riff in Bridge:

D|---------------------------------------------------------------------------|
A|---------------------------------------------10--------------------------*-|
F|-11-9-11---11-11-9-7-7-7/9---11-9-11---11-11----12-11-11-11-9--------------|
C|---------------------------------------------------------------------------|
G|-------------------------------------------------------------------------*-|
D|---------------------------------------------------------------------------| Repeat 2x



************************************

| /   slide up
| \   slide down
| h   hammer-on
| p   pull-off
| ~   vibrato
| +   harmonic
| x   Mute note
| b   Bend
| pb  Pre-bend
| br  Bend release
| pbr Pre-bend release
| brb Bend release bend

************************************

            
            
Suggest correction
Creating personal tab
Creating personal tab
You can edit any tab online and save it as your Personal.

You can edit, replace or remove any tab part or add personal notes – all changes will be seen only by you.

Personal tabs can be accessed anytime from any device, even offline.
Learn more »
Give kudos to tab author, rate the tab!
1 2 3 4 5
comments
print report bad tab
guest
You may want to rate the tab now too:
select rating
Wanna post a correction for this tab? Suggest correction