Oops, an error
Loading. Please wait.

Same Ol Situation bass

version 3
version 3

Whole song

Interactive

115 views 1 this week
1 commentread comment
1 2 3 4 5
2 more votes to show rating
add to favorites
×
Save as Personal and add changes to this tab that will be seen only by you. Learn more ›
×
You can save this tab as Personal to edit and correct it or add notes. All changes will be seen only by you. Learn more »
launch autoscroll
font size
0
reset
guitar tuner
edit
Autoscroll
slow
fast
+/-
esc
set tempo
stop
Mötley Crüe - Same Ol' Situation (S.O.S.)  

Nikki Sixx - Bass

INTRO

     E  E     W                   H        Q.     E     W                 
F||--------|-------------------|---------------------|-------------------|
C||--------|-------------------|---------------------|-------------------|
G||-----0--|--0----------------|--L--------L------0--|--0----------------|
D||--------|-------------------|---------------------|-------------------|

                          
    H        Q.     E     W                   H        Q.     E   
F|---------------------|-------------------|---------------------|
C|---------------------|-------------------|---------------------|
G|--L--------L------0--|--0----------------|--L--------L------0--|
D|---------------------|-------------------|---------------------|

                                              VERSE

    W                   H        E  E    Q        Q    Q    E  E  E  E   
F|-------------------|-------------------------|------------------------|
C|-------------------|-------------------------|------------------------|
G|--0----------------|--L--------L--0s--12\----|--0------------0-----0--|
D|-------------------|-------------------------|------------------------|


    Q    Q    E  E  E  E     Q    Q    E  E  E  E     Q    Q    E  E  E  E   
F|------------------------|------------------------|------------------------|
C|------------------------|------------------------|------------------------|
G|--L------------0--------|------------------------|---------------------0--|
D|---------------------0--|--L------------0-----0--|--L------------0--------|


    Q    Q    E  E  E  E     Q    Q    E  E  E  E     Q    Q    E  E  E  E   
F|------------------------|------------------------|------------------------|
C|------------------------|------------------------|------------------------|
G|--L------------0-----0--|--L------------0--------|------------------------|
D|------------------------|---------------------0--|--L------------0-----0--|


    Q    Q    E  E  E  E     E  E  E  E  E  E  E  E     E  E  E  E  E  E  E  E   
F|------------------------|--------------------------|--------------------------|
C|------------------------|--------------------------|--------------------------|
G|---------------------0--|--L--0--0--0--0--0--0--0--|--L--0--0--0--0--0--0-----|
D|--L------------0--------|--------------------------|-----------------------0--|


    E  E  E  E  E  E  E  E     E  E  E  E  E  E  E  E   
F|--------------------------|--------------------------|
C|--------------------------|--------------------------|
G|--------------------------|--------------------------|
D|--L--0--0--0--0--0--0--0--|--L--0--0--0--0--0--0--0--|


    E  E  E  E  E  E  E  E     E  E  E  E  E  E  E  E   
F|--------------------------|--------------------------|
C|--------------------------|--------------------------|
G|-----0--0--0--0--0--0--0--|--L--0--0--0--0--0--0-----|
D|--L-----------------------|-----------------------0--|


    E  E  E  E  E  E  E  E     E  E  E  E  E  E  E  E   
F|--------------------------|--------------------------|
C|--------------------------|--------------------------|
G|--------------------------|-----------------------5--|
D|--L--0--0--0--0--0--0--0--|--L--0--0--0--0--0--0-----|

PRE-CHORUS

    E  E  E  E  E  E  E  E     E  E  E  E  E  E  E  E   
F|--------------------------|--------------------------|
C|--------------------------|--------------------------|
G|--L--5--5--5--5--5--5--5--|--L--5--5--5--0--4--3--2--|
D|--------------------------|--------------------------|


    E  E  E  E  E  E  E  E     E  E  E  E  E  E  E  E   
F|--------------------------|--------------------------|
C|--------------------------|--------------------------|
G|--L--2--2--2--2--2--2--2--|-----2-----2-----2--2--0--|
D|--------------------------|--------------------------|

CHORUS

    E  E  E  E  E  E  E  E     E  E  E  E  E  E  E  E   
F|--------------------------|--------------------------|
C|--------------------------|--------------------------|
G|--L--0--0--0--0--0--0--0--|--L--0--0--0--0--0--0-----|
D|--------------------------|-----------------------0--|


    E  E  E  E  E  E  E  E     E  E  E  E  E  E  E  E   
F|--------------------------|--------------------------|
C|--------------------------|--------------------------|
G|--------4-----5-----4-----|--------4-----5-----4--0--|
D|--L--0-----------------0--|--L--0--------------------|


    E  E  E  E  E  E  E  E     E  E  E  E  E  E  E  E   
F|--------------------------|--------------------------|
C|--------------------------|--------------------------|
G|--L--0--0--0--0--0--0--0--|--L--0--0--0--0--0--0-----|
D|--------------------------|-----------------------0--|


    E  E  E  E  E  E  E  E     E  E  E  E  E  E  E  E   
F|--------------------------|--------------------------|
C|--------------------------|--------------------------|
G|--------4-----5-----4-----|--------4-----5-----4--5--|
D|--L--0-----------------0--|--L--0--------------------|


    E  E  E  E  E  E  E  E     E  E  E  E  E  E  E  E   
F|--------------------------|--------------------------|
C|--------------------------|--------------------------|
G|--L--5--5--5--5--5--5--5--|--L--5--5--0--5--4--3--2--|
D|--------------------------|--------------------------|



    E  E  E  E  E  E  E  E     E  E  E  E  E  E  E  E     W                 
F|--------------------------|--------------------------|-------------------|
C|--------------------------|--------------------------|-------------------|
G|--L--2--2--2--2--2-----2--|-----2-----2-----2--2--2--|--0----------------|
D|--------------------------|--------------------------|-------------------|


    H.           E  E     W                   W                 
F|---------------------|-------------------|-------------------|
C|---------------------|-------------------|-------------------|
G|--L------------L--0--|--0----------------|--L----------------|
D|---------------------|-------------------|-------------------|

VERSE

    Q    Q    E  E  E  E     Q    Q    E  E  E  E     Q    Q    E  E  E  E   
F|------------------------|------------------------|------------------------|
C|------------------------|------------------------|------------------------|
G|--0------------0-----0--|--L------------0--------|------------------------|
D|------------------------|---------------------0--|--L------------0-----0--|


    Q    Q    E  E  E  E     E  E  E  E  E  E  E  E     E  E  E  E  E  E  E  E   
F|------------------------|--------------------------|--------------------------|
C|------------------------|--------------------------|--------------------------|
G|---------------------0--|--L--0--0--0--0--0--0--0--|--L--0--0--0--0--0--0-----|
D|--L------------0--------|--------------------------|-----------------------0--|


    E  E  E  E  E  E  E  E     E  E  E  E  E  E  E  E   
F|--------------------------|--------------------------|
C|--------------------------|--------------------------|
G|--------------------------|-----------------------5--|
D|--L--0--0--0--0--0--0--0--|--L--0--0--0--0--0--0-----|

PRE-CHORUS

    E  E  E  E  E  E  E  E     E  E  E  E  E  E  E  E   
F|--------------------------|--------------------------|
C|--------------------------|--------------------------|
G|--L--5--5--5--5--5--5--5--|--L--5--5--0--5--4--3--2--|
D|--------------------------|--------------------------|


    E  E  E  E  E  E  E  E     E  E  E  E  E  E  E  E   
F|--------------------------|--------------------------|
C|--------------------------|--------------------------|
G|--L--2--2--2--2--2--2--2--|-----2-----2-----2--2--0--|
D|--------------------------|--------------------------|

CHORUS

    E  E  E  E  E  E  E  E     E  E  E  E  E  E  E  E   
F|--------------------------|--------------------------|
C|--------------------------|--------------------------|
G|--L--0--0--0--0--0--0--0--|--L--0--0--0--0--0--0-----|
D|--------------------------|-----------------------0--|


    E  E  E  E  E  E  E  E     E  E  E  E  E  E  E  E   
F|--------------------------|--------------------------|
C|--------------------------|--------------------------|
G|--------4-----5-----4-----|--------4-----5-----4--0--|
D|--L--0-----------------0--|--L--0--------------------|


    E  E  E  E  E  E  E  E     E  E  E  E  E  E  E  E   
F|--------------------------|--------------------------|
C|--------------------------|--------------------------|
G|--L--0--0--0--0--0--0--0--|--L--0--0--0--0--0--0-----|
D|--------------------------|-----------------------0--|


    E  E  E  E  E  E  E  E     E  E  E  E  E  E  E  E   
F|--------------------------|--------------------------|
C|--------------------------|--------------------------|
G|--------4--0--5-----4-----|--------4-----5-----4--0--|
D|--L--0-----------------0--|--L--0--------------------|


    E  E  E  E  E  E  E  E     E  E  E  E  E  E  E  E   
F|--------------------------|--------------------------|
C|--------------------------|--------------------------|
G|--L--0--0--0--0--0--0--0--|--L--0--0--0--0--0--0-----|
D|--------------------------|-----------------------0--|


    E  E  E  E  E  E  E  E     E  E  E  E  E  E  E  E   
F|--------------------------|--------------------------|
C|--------------------------|--------------------------|
G|--------4-----5-----4-----|--------4-----5-----4--0--|
D|--L--0-----------------0--|--L--0--------------------|


    E  E  E  E  E  E  E  E     E  E  E  E  E  E  E  E   
F|--------------------------|--------------------------|
C|--------------------------|--------------------------|
G|--L--0--0--0--0--0--0--0--|--L--0--0--0--0--0--0-----|
D|--------------------------|-----------------------0--|


    E  E  E  E  E  E  E  E     E  E  E  E  E  E  E  E   
F|--------------------------|--------------------------|
C|--------------------------|--------------------------|
G|--------4-----5-----4-----|--------4-----5-----4--5--|
D|--L--0-----------------0--|--L--0--------------------|


    E  E  E  E  E  E  E  E     E  E  E  E  E  E  E  E     E  E  E  E  H         
F|--------------------------|--------------------------|-----------------------|
C|--------------------------|--------------------------|-----------------------|
G|--L--5--5--5--5--5--5--5--|--L--5--5--0--5--4--3--2--|--L--2--2--2--2--------|
D|--------------------------|--------------------------|-----------------------|

                           INTRO

    E  E  E  E  E  E  E  E      W                   H        Q.     E   
F|--------------------------|--------------------|---------------------|
C|--------------------------|--------------------|---------------------|
G|-----2-----2-----2--2--2--|--12----------------|--L--------L------0--|
D|--------------------------|--------------------|---------------------|


    W                   H        Q.     E     W                 
F|-------------------|---------------------|-------------------|
C|-------------------|---------------------|-------------------|
G|--0----------------|--L--------L------0--|--0----------------|
D|-------------------|---------------------|-------------------|


    W                       E   E   E   E   E   E   E   E   
F|-------------------|--12g14--12------12------------------|
C|-------------------|-------------14------14--13--12--10--|
G|--L----------------|-------------------------------------|
D|-------------------|-------------------------------------|
                                   
                                   SOLO

     E   E   E   E   E   E   E   E     E  E  E  E  E  E  E  E   
F|----------------------------------|--------------------------|
C|--12--10------10------------------|--------------------------|
G|----------12------12--11--10------|--0--0--4--4--5--5--6--7--|
D|------------------------------12--|--------------------------|


    E  E  E  E  E  E  E  E     E  E  E  E  E  E  E  E   
F|--------------------------|--------------------------|
C|--------------------------|--------6--6--7--7--8--9--|
G|--0--0--4--4--5--5--6--7--|--7--7--------------------|
D|--------------------------|--------------------------|


    E  E  E  E  E  E  E  E     E  E  E  E  E  E  E  E   
F|--------------------------|--------------------------|
C|--------6--6--7--7--8-----|--------------------------|
G|--7--7-----------------0--|--L--0--4--4--5--5--6--7--|
D|--------------------------|--------------------------|


    E  E  E  E  E  E  E  E     E  E  E  E  E  E  E  E   
F|--------------------------|--------------------------|
C|--------------------------|--------6--6--7--7--8--8--|
G|--0--0--4--4--5--5--6--7--|--7--7--------------------|
D|--------------------------|--------------------------|


    E  E  E  E  E  E  E  E     E  E  E  E  E  E  E  E   
F|--------6--6--7--7--8-----|--------------------------|
C|--9--9--------------------|--------------------------|
G|-----------------------5--|--L--5--5--5--5--5--5--5--|
D|--------------------------|--------------------------|


    E  E  E  E  E  E  E  E     E  E  E  E  E  E  E  E   
F|--------------------------|--------------------------|
C|--------------------------|--------------------------|
G|--L--5--5--0--5--4--3--2--|--L--2--2--2--2--2--2--2--|
D|--------------------------|--------------------------|

                           BREAK

    E  E  E  E  E  E  E  E     Q    Q    H                                       
F|--------------------------|---------------------|-----|-----|-----|-----|-----|
C|--------------------------|---------------------|-----|-----|-----|-----|-----|
G|-----2-----2-----2--2--2--|--0------------------|-----|-----|-----|-----|-----|
D|--------------------------|---------------------|-----|-----|-----|-----|-----|


                H        H            H        H            H        H          
F|-----|-----|---------------------|---------------------|---------------------|
C|-----|-----|---------------------|---------------------|---------------------|
G|-----|-----|---------------------|---------------------|-----------7\--------|
D|-----|-----|-----------5\--------|-----------5\--------|---------------------|


    H        H            H        H            H        H          
F|---------------------|---------------------|---------------------|
C|---------------------|---------------------|---------------------|
G|-----------7\--------|---------------------|---------------------|
D|---------------------|-----------5\--------|-----------5\--------|


    H        H            H         E    E    E   E     W                 
F|---------------------|-----------------------------|-------------------|
C|---------------------|-----------------------------|-------------------|
G|-----------7\--------|-----------(7)--(7)--(7)--5--|--5----------------|
D|---------------------|-----------------------------|-------------------|


    H        E  E  E  E     W                   W                 
F|-----------------------|-------------------|-------------------|
C|-----------------------|-------------------|-------------------|
G|--L--------5--4--3--2--|--L----------------|--L----------------|
D|-----------------------|-------------------|-------------------|

                        CHRORUS

    H         Q    E  E     E  E  E  E  E  E  E  E     E  E  E  E  E  E  E  E   
F|-----------------------|--------------------------|--------------------------|
C|-----------------------|--------------------------|--------------------------|
G|--L---------L----L--0--|--L--0--0--0--0--0--0--0--|--L--0--0--0--0--0--0-----|
D|-----------------------|--------------------------|-----------------------0--|


    E  E  E  E  E  E  E  E     E  E  E  E  E  E  E  E   
F|--------------------------|--------------------------|
C|--------------------------|--------------------------|
G|--------4-----5-----4-----|--------4-----5-----4--0--|
D|--L--0-----------------0--|--L--0--------------------|


    E  E  E  E  E  E  E  E     E  E  E  E  E  E  E  E   
F|--------------------------|--------------------------|
C|--------------------------|--------------------------|
G|--L--0--0--0--0--0--0--0--|--L--0--0--0--0--0--0-----|
D|--------------------------|-----------------------0--|


    E  E  E  E  E  E  E  E     E  E  E  E  E  E  E  E   
F|--------------------------|--------------------------|
C|--------------------------|--------------------------|
G|--------4-----5-----4-----|--------4-----5-----4--0--|
D|--L--0-----------------0--|--L--0--------------------|


    E  E  E  E  E  E  E  E     E  E  E  E  E  E  E  E   
F|--------------------------|--------------------------|
C|--------------------------|--------------------------|
G|--L--0--0--0--0--0--0--0--|--L--0--0--0--0--0--0-----|
D|--------------------------|-----------------------0--|


    E  E  E  E  E  E  E  E     E  E  E  E  E  E  E  E   
F|--------------------------|--------------------------|
C|--------------------------|--------------------------|
G|--------4-----5-----4-----|--------4-----5-----4--0--|
D|--L--0-----------------0--|--L--0--------------------|


    E  E  E  E  E  E  E  E     E  E  E  E  E  E  E  E   
F|--------------------------|--------------------------|
C|--------------------------|--------------------------|
G|--L--0--0--0--0--0--0--0--|--L--0--0--0--0--0--0-----|
D|--------------------------|-----------------------0--|


    E  E  E  E  E  E  E  E     E  E  E  E  E  E  E  E   
F|--------------------------|--------------------------|
C|--------------------------|--------------------------|
G|--------4-----5-----4-----|--------4-----5-----4-----|
D|--L--0-----------------0--|--L--0-----------------0--|

OUTRO

    E  E  E  E  E  E  E  E     E  E  E  E  E  E  E  E   
F|--------------------------|--------------------------|
C|--------------------------|--------------------------|
G|--------4-----5-----4-----|--------4-----5-----4-----|
D|--L--0-----------------0--|--L--0-----------------0--|


    E  E  E  E  E  E  E  E     E  E  E  E  E  E  E  E   
F|--------------------------|--------------------------|
C|--------------------------|--------------------------|
G|--------4-----5-----4-----|--------4-----5-----4-----|
D|--L--0-----------------0--|--L--0-----------------0--|


    E  E  E  E  E  E  E  E     E  E  E  E  E  E  E  E   
F|--------------------------|--------------------------|
C|--------------------------|--------------------------|
G|--------4-----5-----4-----|--------4-----5-----4-----|
D|--L--0-----------------0--|--L--0-----------------0--|


    E  E  E  E  E  E  E  E     W                   W                 
F|--------------------------|-------------------|-------------------|
C|--------------------------|-------------------|-------------------|
G|--------4-----5-----4--0--|--0----------------|--L----------------|
D|--L--0--------------------|-------------------|-------------------|


    W                   W                   W                 
F|-------------------|-------------------|-------------------|
C|-------------------|-------------------|-------------------|
G|--L----------------|--L----------------|--L----------------|
D|-------------------|-------------------|-------------------|


    W                  
F|-------------------||
C|-------------------||
G|-------------------||
D|-------------------||



Duration Legend
---------------
W - whole
H - half
Q - quarter
E - 8th
S - 16th
T - 32nd
X - 64th
. - note dotted
|-n-|  - n-tuplets


Tablature Legend
----------------
L - tied note
x - dead note
g - grace note
(n) - ghost note
h - hammer on
p - pull off
S - shift slide
s - legato slide
/ -  slide into from below or out of upwards
\ -  slide into from above or out of downwards

            
            
Suggest correction
Creating personal tab
Creating personal tab
You can edit any tab online and save it as your Personal.

You can edit, replace or remove any tab part or add personal notes – all changes will be seen only by you.

Personal tabs can be accessed anytime from any device, even offline.
Learn more »
Give kudos to tab author, rate the tab!
1 2 3 4 5
comments
print report bad tab
1 comment total.
0 reply
kellynickels 3,017 Feb 25, 2016 01:54 AM, edited on February 26 2016, 10:09 am

It's not dropped. Its a full step down..Btw there's a lot ot inomplete fills....correct it to full step down. It makes no sense to upload this..
***edited by me***

guest
You may want to rate the tab now too:
select rating
Wanna post a correction for this tab? Suggest correction