Oops, an error
Loading. Please wait.

Sweet Dreams bass

version 2
version 2

Whole song

265 views 3 this week
no commentswrite comment
1 2 3 4 5
3 more votes to show rating
add to favorites
×
Save as Personal and add changes to this tab that will be seen only by you. Learn more ›
×
You can save this tab as Personal to edit and correct it or add notes. All changes will be seen only by you. Learn more »
launch autoscroll
font size
0
reset
guitar tuner
edit
Autoscroll
slow
fast
+/-
esc
set tempo
stop
Author
Difficulty
Beyonce - Sweet Dreams (5 string bass)

This one is in the correct key

Tabbed by: sprad001 

Tuning: Standard

G|---------------------------|
D|-------------------8P6-----|
A|---6-6-8\6-4-4---------9-8-|
E|---------------6-7---------|
B|-4-------------------------|


G|---------------------------|
D|-------------------8P6-----|
A|---6-6-8\6-4-4---------9-8-|
E|---------------------------|
B|-4-------------7-9---------|


=========================================================================
Beyonce - Sweet Dreams (4 string bass)

Tuning: Down 1/2 Step

Gb|-------------------4P2-0---|
Db|---2-2-4\2-0-0-----------4-|
Ab|---------------2-3---------|
Eb|-0-------------------------|


Gb|-------------------4P2-0---|
Db|---2-2-4\2-0-0-----------4-|
Ab|-----------------0---------|
Eb|-0-------------3-----------|


This repeats throughout the song.
If you have a Boss GT-10B bass effect processor then Preset bank 1 (P01)
No 4 effect is a good place to start which can be changed to your liking.


| \  slide down
| p  pull-off

===============================================================================

            
            
Suggest correction
Creating personal tab
Creating personal tab
You can edit any tab online and save it as your Personal.

You can edit, replace or remove any tab part or add personal notes – all changes will be seen only by you.

Personal tabs can be accessed anytime from any device, even offline.
Learn more »
Give kudos to tab author, rate the tab!
1 2 3 4 5
comments
print report bad tab
guest
You may want to rate the tab now too:
select rating
Wanna post a correction for this tab? Suggest correction