Oops, an error
Loading. Please wait.

Kill Us chords

400 views 3 this week
12 commentsread comments
1 2 3 4 5
x 7
add to favorites
×
Save as Personal and add changes to this tab that will be seen only by you. Learn more ›
×
You can save this tab as Personal to edit and correct it or add notes. All changes will be seen only by you. Learn more »
launch autoscroll
font size
0
reset
transpose
0
reset
simplify chords
display chords
guitar tuner
edit
Autoscroll
slow
fast
+/-
esc
set tempo
stop
Strumming
There is no strumming pattern for this song yet. and get +5 IQ
-------------------------------------------------------------------------------------------------------------
                                          Artist - Ástíðir
                                         ******************
                                           Song - Kill us
                                          ****************
                                       Album - Arstidir (2009)   
                                      *************************
                                         Tabbed By - Ayreon77
                                        **********************
-------------------------------------------------------------------------------------------------------------
Tuning = Standard



**************
CAPO 2nd FRET - Tabs are relevant to the guitar frets, chords are relative to the shapes
**************


This is the picking pattern for the track


ACOUSTIC 1 
***********
  A                           C         D 
e|-------------|-------------|---------|----------|
B|-------2-----|-------2-----|---------|----------|
G|---4-----4---|---4-----4---|----h--2-|-s---2--s-|
D|-4---4-----4-|-----4-----4-|---2-4---|-\6----4\-|
A|-2-----------|-2-----------|-5-------|-\7-------|
E|-------------|-------------|---------|----------|


-----------------------------
00:11
CAPO 2nd FRET - Notes are relevant to the guitar frets
ACOUSTIC 2
***********
   A
e|-2-------------------|-------------|
B|--2------------------|-------------|
G|---4-----------------|-------------|
D|----4----------------|-------------|
A|-----2------s------s-|-2-4-5--7----|
E|------2----5\7---7\--|-----------7-|
 

-----------------------------
00:17
NO CAPO
ELECTRIC GUITAR 3
******************
e|-----------|
B|--p--------|
G|-9-7---7---|
D|-----9---9-|
A|-----------|
E|-----------|


-----------------------------
VERSE 1
********
A7sus2          C          D      A7sus2
For today, your mind won't let me play
00:29
e|-----------------|
B|--------h--------|
G|--h--7-7-9-7-----|
D|-7-9---------9-9-|
A|-----------------|
E|-----------------|

               C     D       A7sus2    
Easy now, it's gonna go your way
00:39
e|---------------|
B|--p------------|
G|-9-7---7----s--|
D|-----9---9-7\9-|
A|---------------|
E|---------------|

                       C      D         A7sus2
Day dreamer, won't you let me ease your pain
                  C        D     A7sus2
Star sailor, your ire will be in vain
      C        D    A7sus2
Gonna hurt yourself again


-----------------------------
01:11
SMALL SOLO - D C A7sus2 X2
***********                  s
e|----------------s---10-|-10\12-10-|----------|-------------------|---------|----------------|-------------|
B|------------7-10\12----|-10\12-10-|-10----10-|-rbp---------------|---------|--s----------s--|-------------|
G|--s--7-9-10------------|----------|--9h11--9-|-9--7---7----7/9\7-|--h--7---|-7\9-9-9-9--9\7-|----------h--|
D|-7\9-------------------|----------|----------|------9---9--7/9\7-|-7-9---9-|-7\9-9-9-9--9\7-|-9-x-7-x-7-9-|
A|-----------------------|----------|----------|-------------------|---------|----------------|-------------|
E|-----------------------|----------|----------|-------------------|---------|----------------|-------------|


-----------------------------
01:28
CHORUS
*******
D              C
Kill us in the night
A7sus2
Come to set things right
D            C
Do us in the night
      A7sus2
Do us right

C D A7sus2      C D A7sus2


-----------------------------
02:08
DISTORTED CELLO?
****************
C    D    A7sus2
Ahh  Ahh  Ahh...
C    D    A7sus2
Ahh  Ahh  Ahh...


D     C    A7sus2  X2 play with solo below.


-----------------------------
CHORUS
*******
D              C
Kill us in the night
A7sus2
Come to set things right
D            C
Do us in the night
      A7sus2
Do us right
      C     D  A7sus2         
Do us right


-----------------------------
03:09 - Come back in with the picking pattern above
SMALL SOLO
***********
     p
e|-10-7----7-----------------|--------------|------------------------------|-----------|--------------|
B|------10---10-10-----------|-10-----------|--------h--p------------------|-----------|--------------|
G|--------------9brp---7-7---|-9brp-7---7---|--s--7-9-10-9-7-9-7--s--------|--------h--|-9--9--9-7----|
D|-------------------------9-|--------9---9-|-7\9----------------9\7---7---|-7--7--7-9-|-9--9--9-7--9-|
A|---------------------------|--------------|------------------------9---9-|-7-----7---|--------------|
E|---------------------------|--------------|------------------------------|-----------|--------------|

03:25        p               h
e|-------|-10-9---p------|-10-12-10-|-------------|---------|
B|-------|------10-7-----|-------10-|-10-10----10-|--rbp----|
G|-7-----|-----------7---|----------|-9---9h11--9-|-9---7---|
D|-7h9-9-|-------------9-|----------|-------------|-------9-|
A|-------|---------------|----------|-------------|---------|
E|-------|---------------|----------|-------------|---------|


-----------------------------
VERSE 2                                    
********
A7sus2        C          D      A7sus2
For today, my mind won't let me play

e|----------------------------------|---------------|
B|----------------------------------|--------h------|
G|--h--7----------------------------|--h--7-7-9-7---|
D|-7-9------------------------------|-7-9---------9-|
A|----------------------------------|---------------|
E|----------------------------------|---------------|

               C     D     A7sus2
Easy now, it's gonna go my way

e|----------------------------|-------|
B|----------------------------|-------|
G|-9--11----------------------|--h--7-|
D|----------------------------|-7-9---|
A|----------------------------|-------|
E|----------------------------|-------|

      C      D    A7sus2
Gonna hurt myself again

e|----------------------|-----|
B|----------------------|-----|
G|--h--7--9--7-----9br--|--s--|
D|-7-9----------9-------|-7\9-|
A|----------------------|-----|
E|----------------------|-----|


ENJOY.........


p   = Pull Off
h   = Hammer On
b   = Bend
br  = Bend Release
brp = Bend Release Pulloff
/   = Slide

            
            
Suggest correction
Creating personal tab
Creating personal tab
You can edit any tab online and save it as your Personal.

You can edit, replace or remove any tab part or add personal notes – all changes will be seen only by you.

Personal tabs can be accessed anytime from any device, even offline.
Learn more »
comments
print report bad tab
12 comments total. Showing first comments.
0 reply
komfy.kulakaw 92 Feb 27, 2016 01:00 AM

e|-------------|-------------|---------|----------|
B|-------2-----|-------2-----|---------|----------|
G|---4-----4---|---4-----4---|----h--0-|-s---0--s-|
D|-4---4-----4-|-----4-----4-|---0-4---|-\6----4\-|
A|-2-----------|-2-----------|-5-------|-\7-------|
E|-------------|-------------|---------|----------|

How do I hit those open notes if my open notes are 2nd capo?

0 reply
ayreon77 21,833 Feb 27, 2016 04:13 AM

with the capo still on, the notes are relevant to the guitar frets, apart from the open, how do you think you hit them, when u get to that note you take the capo off and hit the open string, and then put the capo back on ask a stupid question you get a stupid answer, if you can do better go for it, don,t just be a spiteful prick and rate it low.

0 reply
flyinglibra51 7,083 Feb 27, 2016 06:33 AM

Árstíðir an Icelandic band, great tab thanks for it. I like their music an will be listening to more of it.

guest
You may want to rate the tab now too:
select rating
Wanna post a correction for this tab? Suggest correction