Oops, an error
Loading. Please wait.

Londe Amère tab

94 views 3 this week
no commentswrite comment
1 2 3 4 5
3 more votes to show rating
add to favorites
×
Save as Personal and add changes to this tab that will be seen only by you. Learn more ›
×
You can save this tab as Personal to edit and correct it or add notes. All changes will be seen only by you. Learn more »
launch autoscroll
font size
0
reset
how to read this tab
guitar tuner
edit
Autoscroll
slow
fast
+/-
esc
set tempo
stop
Keren Ann - L'Onde Amère

Tab by JeChe - Bonne Gratte !

Capo 1

[Intro]
e|---------------|---------------|---------------|---------------|
B|----------0----|----------0----|----------0----|----------0----|
G|-------0-------|-------0-------|-------0-------|-------0-------|
D|----2----------|----2----------|----2----------|----2----------|
A|-2-------------|-3-------------|-2-------------|-3-------------|
E|---------------|---------------|---------------|---------------|

[Couplet]
e|---------------|---------------|------------------|-------------------|
B|----------0----|----------0----|------------------|-------------------|
G|-------0-------|-------0-------|-------2-------2--|-------2--------2--|
D|----2----------|----2----------|----2--------2----|----2--------1-----|
A|-2-------------|-3-------------|-0----------------|----------2--------|
E|---------------|---------------|----------3-------|-2-----------------|

 Perdre le fil du temps  Tâter le vent        N'avoir plus rien à craindre   Mais

e|---------------|---------------|------------------|-------------------|
B|----------0----|----------0----|------------------|-------------------|
G|-------0-------|-------0-------|-------2-------2--|-------2--------2--|
D|----2----------|----2----------|----2--------2----|----2--------1-----|
A|-2-------------|-3-------------|-0----------------|----------2--------|
E|---------------|---------------|----------3-------|-2-----------------|

 Craindre qu'à tout moment Au fil de l'eau  Il n'y ait plus rien à perdre

[Refrain]
e|-----------------|------------------|-----------------|---------------|
B|-4---4---5---4---|-4---4---------4--|-4---4---5---4---|-4---4---------|
G|---4---4---4---4-|---4---2-----4----|---4---4---4---4-|-------2-------|
D|---------2-------|-----------4------|---------2-------|---4-----------|
A|-----2-------2---|-2-------2--------|-----2-------2---|-2-------------|
E|-0---------------|------------------|-0---------------|---------------|

 Suivre      l'onde amère  Apprendre à vivre  à ciel couvert

e|-----4-------0---|-----4-------0----|------------------|------------------|
B|-0h2-----0h2---2-|-0h2-----0h2---2--|-4---4---5---4----|-4---4---5---4----|
G|-----------------|-2-------2--------|---4---4---4---4--|---4---4---4---4--|
D|-2-------2-------|------------------|-----4-------4----|-----4-------4----|
A|-0-----0---------|------------------|-2-------2--------|-2-------2--------|
E|-----------------|-2-----2----------|------------------|------------------|

 Se résoudre  à ne plus avoir     de repères     En avoir l'air



[Couplet 1]
Em               Csus2
Perdre le fil du temps
         Am   Am/G
Tâter le vent
             Am/F#     B7
N'avoir plus rien à craindre
      Em                Csus2
Mais craindre qu'à tout moment
          Am   Am/G
Au fil de l'eau
                Am/F#      B7
Il n'y ait plus rien à perdre


[Refrain]
 E             B
Suivre l'onde amère
             E  
Apprendre à vivre
           B
A ciel couvert
A
Se résoudre
     F#m7            B
A ne plus avoir de repères
          B
En avoir l'air


[Couplet 2]
Em            Csus2            Am  Am/G
Fuir à contre sens la dernière chance 
            Am/F#     B7
D'avoir des choses à dire
     Em               Csus2
Mais dire ce que l'on pense
            Am   Am/G
Se faire violence
             Am/F#    B7
N'avoir plus rien à fuir


[Refrain]
 E             B
Suivre l'onde amère
             E  
Apprendre à vivre
           B
A ciel couvert
A
Se résoudre
     F#m7            B
A ne plus avoir de repères
          B
En avoir l'air

[Solo trompette]

[Refrain]
 E             B
Suivre l'onde amère
             E  
Apprendre à vivre
           B
A ciel couvert
A
Se résoudre
     F#m7            B
A ne plus avoir de repères
          B
En avoir l'air


[Couplet 3]
Em                  Csus2
Feindre de voir le jour
          Am   Am/G
Le non-retour
         Am/F#      B7      Em
Ne plus savoir à quoi s'attendre


[Outro trompette]

            
            
Suggest correction
Creating personal tab
Creating personal tab
You can edit any tab online and save it as your Personal.

You can edit, replace or remove any tab part or add personal notes – all changes will be seen only by you.

Personal tabs can be accessed anytime from any device, even offline.
Learn more »
Give kudos to tab author, rate the tab!
1 2 3 4 5
comments
print report bad tab
guest
You may want to rate the tab now too:
select rating
Wanna post a correction for this tab? Suggest correction