Oops, an error
Loading. Please wait.

Geißel Der See chords

1,129 views 42 this week
no commentswrite comment
1 2 3 4 5
x 5
add to favorites
×
Save as Personal and add changes to this tab that will be seen only by you. Learn more ›
×
You can save this tab as Personal to edit and correct it or add notes. All changes will be seen only by you. Learn more »
launch autoscroll
font size
0
reset
transpose
0
reset
display chords
guitar tuner
edit
Autoscroll
slow
fast
+/-
esc
set tempo
stop
Strumming
There is no strumming pattern for this song yet. and get +5 IQ
Standard tuning. 


1.Verse: 
Em                                               D
Auf den Inseln der Karibik nennt man mich Piratenpack, 
                                                     Em
Tunichtgut, Gauner, Kanaille, Heuchler, Mörder, Unsympath 
                                                              D
Ich hör nur Missgunst und Verachtung, wenn die Welt über mich spricht,
        C                                    Em
Und ich geb es ja zu - Unrecht hat sie damit nicht
                                               D
Sogar Blackbeard wäre neidisch auf meine Hinterlist
                                                       Em
Selten acht´ ich die Gesetze und auch Steuern zahl ich nicht
                                             D
Kaperfahrer, Bukanier. Wie du´s immer nennen willst
        C                                  Em
Ich bin impertinent, frevlerisch und hasserfüllt


Bridge:
        C                    D
Und ein jeder auf See und an Land
  C                        D
Erzittert vor meiner Intriganz


Refrain:
            G             D      Em
Ich bin der Schrecken der Sieben Meere
            C          D
Ich bin die Geißel der See
      G               D              Em
Keine Rettung gibt es mehr für meine Seele
    G                D              G
Der Teufel wird sich freuen mich zu sehn


Fill:
  Em          Em          Em
|-00----------00----------00---------------------------------------|
|-00----------00----------00---------------------------------------|
|-00----------00----------00---------------------------------------|x2
|-22-2--------22-2--------22-2-------------------------------------| 
|-22-2-9-8-7--22-2-9-8-7--22-2-9-8-7--5-4-5-4-5--------------------|
|-00-0-7-6-5--00-0-7-6-5--00-0-7-6-5--3-2-3-2-3--------------------|

2. Verse:
Em                                     D
Ein Biotop an Ungeziefer hatten wir an Deck
                                                   Em
So sollten wir uns waschen, denn die Läuse mussten weg
                                                         D
Doch das fiel mir gar nicht ein, denn ich hing an meinem Schmutz
         C                                 Em
Ich rief "Revolution" - Hab keine Seife benutzt
                                                D
Doch der alte Captain Blake hat das leider mitgekriegt
                                                       Em
Meint, das wäre Meuterei und davon hielt er eigentlich nicht
                                          D
Also wurde ich bestraft, meine Ehre war befleckt
        C                                       Em
Denn er schickte mich wohl - Ohne Nachtisch ins Bett


Bridge:
        C                    D
Und ein jeder auf See und an Land
  C                        D
Erzittert vor meiner Intriganz


Refrain:
            G             D      Em
Ich bin der Schrecken der Sieben Meere
            C          D
Ich bin die Geißel der See
      G               D              Em
Keine Rettung gibt es mehr für meine Seele
    G                D              G
Der Teufel wird sich freuen mich zu sehn


Fill:
  Em          Em          Em
|-00----------00----------00---------------------------------------|
|-00----------00----------00---------------------------------------|
|-00----------00----------00---------------------------------------|x2
|-22-2--------22-2--------22-2-------------------------------------| 
|-22-2-9-8-7--22-2-9-8-7--22-2-9-8-7--5-4-5-4-5--------------------|
|-00-0-7-6-5--00-0-7-6-5--00-0-7-6-5--3-2-3-2-3--------------------|


3. Verse:
Em                                                    D
Neulich ging ich in die Kirche, um mein Seelenheil zu klär´n
                                                         Em
Dachte mir, ein bisschen Segen kann wohl ab und zu nicht stör´n
                                                     D
Und wie jeden Sonntag gingen Klingelbeutel durch die Reih´n
               C                                         Em
Ich macht´ ein edles Gesicht - Und warf nen Hosenknopf hinein
                                                D
Für mein mieses Naturell wurd´ ich neulich ausgepeitscht
                                                         Em
Doch ich schwör dem Captain Rache in meinem mitleidlosen Geist
                                                        D
Ich schnappte mir nen Eimer Farbe, hab gewartet bis zur Nacht
        C                                       Em
Uns´rer Galionsfigur - einen Schnurrbart verpasst


Bridge:
        C                    D
Und ein jeder auf See und an Land
  C                        D
Erzittert vor meiner Intriganz


Refrain:
            G             D      Em
Ich bin der Schrecken der Sieben Meere
            C          D
Ich bin die Geißel der See
      G               D              Em
Keine Rettung gibt es mehr für meine Seele
    G                D              G
Der Teufel wird sich freuen mich zu sehn


Fill:
  Em          Em          Em
|-00----------00----------00---------------------------------------|
|-00----------00----------00---------------------------------------|
|-00----------00----------00---------------------------------------|x2
|-22-2--------22-2--------22-2-------------------------------------| 
|-22-2-9-8-7--22-2-9-8-7--22-2-9-8-7--5-4-5-4-5--------------------|
|-00-0-7-6-5--00-0-7-6-5--00-0-7-6-5--3-2-3-2-3--------------------|

4. Verse: (No guitar) 
Und wenn ich vor meinem Schöpfer trete,
Dann wird er sagen "Edler Mann,
Zum Paradies geht´s geradeaus. Dort ist die Pforte, bitte sehr"
Dann werde ich ein bisschen traurig, bin ich doch böse und infam
            C                                                Em    
ich sag dem bärtigen Kerl - Der muss mich wohl verwechselt ham´


Bridge:
        C                    D
Und ein jeder auf See und an Land
  C                        D
Erzittert vor meiner Intriganz


Refrain:
            G             D      Em
Ich bin der Schrecken der Sieben Meere
            C          D
Ich bin die Geißel der See
      G               D              Em
Keine Rettung gibt es mehr für meine Seele
    G                D              G
Der Teufel wird sich freuen mich zu sehn

End:
  Em          Em          Em
|-00----------00----------00---------------------------------------|
|-00----------00----------00---------------------------------------|
|-00----------00----------00---------------------------------------|
|-22-2--------22-2--------22-2-------------------------------------| 
|-22-2-9-8-7--22-2-9-8-7--22-2-9-8-7--5-4-5-4-5--------------------|
|-00-0-7-6-5--00-0-7-6-5--00-0-7-6-5--3-2-3-2-3--------------------|
  Em          Em          Em                                      Em
|-00----------00----------00---------|------------|---------------00|
|-00----------00----------00---------|------------|---------------00|
|-00----------00----------00---------|------------|---------------00|
|-22-2--------22-2--------22-2-------|------------|---------------22| 
|-22-2-9-8-7--22-2-9-8-7--22-2-9-8-7-|-5-4-5-4-5-4|---------------22|
|-00-0-7-6-5--00-0-7-6-5--00-0-7-6-5-|-3-2-3-2-3-2|---------------00|
                                      this part 3x,        then  

            
            
Suggest correction
Creating personal tab
Creating personal tab
You can edit any tab online and save it as your Personal.

You can edit, replace or remove any tab part or add personal notes – all changes will be seen only by you.

Personal tabs can be accessed anytime from any device, even offline.
Learn more »
comments
print report bad tab
guest
You may want to rate the tab now too:
select rating
Wanna post a correction for this tab? Suggest correction