Oops, an error
Loading. Please wait.

Oleré Y Oleré Y Oleré El Uhu bass

by Molotov
1,705 views 30 this week
no commentswrite comment
1 2 3 4 5
1 last vote to show rating
add to favorites
×
Save as Personal and add changes to this tab that will be seen only by you. Learn more ›
×
You can save this tab as Personal to edit and correct it or add notes. All changes will be seen only by you. Learn more »
launch autoscroll
font size
0
reset
guitar tuner
edit
Autoscroll
slow
fast
+/-
esc
set tempo
stop
Author
[Intro]

0:00
G|--12-14-------------------------------------|--12-14------------------------------------|
D|--------12-14-10-12-9-10--------------10-12-|--------12-14-10-12-9-10--------9h10-------|
A|-------------------------0-9/10-10-12-------|-------------------------0-9/10------------|
E|--------------------------------------------|-------------------------------------------|

G|--12-14-------------------------------------|--12-14------------------------------------|
D|--------12-14-10-12-9-10--------------10-12-|--------12-14-10-12-9-10--------9h10-9h10--|
A|-------------------------0-9/10-10-12-------|-------------------------0-9/10------------|
E|--------------------------------------------|-------------------------------------------|

[Verse]

0:11 "Días de no rasurarme..."
G|------------------|------------------|----------------------|---------------------------|
D|------------------|------------------|----------------------|---------------------------|
A|-7-7-7-7-7-7-10-9-|-7-7-7-7-7-7-10-9-|-10-10-10-10-10-7-8-7-|-10-10-10-10-10-7-8-7------|
E|------------------|------------------|----------------------|---------------------------|

G|------------------|------------------|----------------------|---------------------------|
D|------------------|------------------|----------------------|---------------------------|
A|-7-7-7-7-7-7-10-9-|-7-7-7-7-7-7-10-9-|-10-10-10-10-10-7-9-7-|-10-10-10-10-10-7-9-7------|
E|------------------|------------------|----------------------|---------------------------|

G|------------------|------------------|----------------------|---------------------------|
D|------------------|------------------|----------------------|---------------------------|
A|-7-7-7-7-7-7-10-9-|-7-7-7-7-7-7-10-9-|-10-10-10-10-10-7-9-7-|-10-10-10-10-10-7-9-7------|
E|------------------|------------------|----------------------|---------------------------|

G|------------------|------------------|----------------------|---------------------------|
D|------------------|------------------|----------------------|---------------------------|
A|-7-7-7-7-7-7-10-9-|-7-7-7-7-7-7-10-9-|-10-10-10-10-10-7-9-7-|-10-10-10-10-10-7-9-7------|
E|------------------|------------------|----------------------|---------------------------|

[Chorus]

0:33 "Oleré y oleré y oleré el UHU..."
G|--------------------------|-------------------------------------------------------------|
D|--------------------------|-------------------------------------------------------------|
A|--------------------------|-------------------------------------------------------------|
E|-5-0-7--5-0-7--5-0-7--5-8-|-5-0-7--5-0-7--5-7-xx--xx--xx--------------------------------|

G|--------------------------|-------------------------------------------------------------|
D|--------------------------|-------------------------------------------------------------|
A|--------------------------|---------------------5-4-3-----------------------------------|
E|-5-0-7--5-0-7--5-0-7--5-8-|-5-0-7--5-0-7--5-7----------3-2------------------------------|

[Verse]

0:44 "Días en que en mi oficina..."
G|-----------------|-----------------|-----------------|----------------------------------|
D|-----------------|-----------------|-----------------|----------------------------------|
A|-----------------|-----------------|-----------------|----------------------------------|
E|-0-0-0-0-0-0-3-2-|-0-0-0-0-0-0-3-2-|-3-3-3-3-3-0-1-0-|-3-3-3-3-3-0-1-0------------------|

G|-----------------|-----------------|-----------------|----------------------------------|
D|-----------------|-----------------|-----------------|----------------------------------|
A|-----------------|-----------------|-----------------|----------------------------------|
E|-0-0-0-0-0-0-3-2-|-0-0-0-0-0-0-3-2-|-3-3-3-3-3-0-1-0-|-3-3-3-3-3-0-1-0------------------|

G|-----------------|-----------------|-----------------|----------------------------------|
D|-----------------|-----------------|-----------------|----------------------------------|
A|-----------------|-----------------|-----------------|----------------------------------|
E|-0-0-0-0-0-0-3-2-|-0-0-0-0-0-0-3-2-|-3-3-3-3-3-0-1-0-|-3-3-3-3-3-0-1-0------------------|

G|-----------------|-----------------|-----------------|----------------------------------|
D|-----------------|-----------------|-----------------|----------------------------------|
A|-----------------|-----------------|-----------------|----------------------------------|
E|-0-0-0-0-0-0-3-2-|-0-0-0-0-0-0-3-2-|-3-3-3-3-3-0-1-0-|-3-3-3-3-3-0-1-0------------------|

1:06
|G|--12-14-------------------------------------|--12-14-----------------------------------|
|D|--------12-14-10-12-9-10--------------10-12-|--------12-14-10-12-9-10--------9h10-9h10-|
|A|-------------------------0-9/10-10-12-------|-------------------------0-9/10-----------|
|E|--------------------------------------------|------------------------------------------|
|
|While 2nd Bass
|G|-----------------|-----------------|-----------------|---------------------------------|
|D|-----------------|-----------------|-----------------|---------------------------------|
|A|-----------------|-----------------|-----------------|---------------------------------|
|E|-5-5-5-5-5-5-5-5-|-5-5-5-5-5-5-5-5-|-5-5-5-5-5-5-5-5-|-5-5-5-5-5-5-5-5-----------------|

[Chorus]

1:11 "Oleré y oleré y oleré el UHU..."
G|--------------------------|-------------------------------------------------------------|
D|--------------------------|-------------------------------------------------------------|
A|--------------------------|-------------------------------------------------------------|
E|-5-0-7--5-0-7--5-0-7--5-8-|-5-0-7--5-0-7--5-7-xx--xx--xx--------------------------------|

G|--------------------------|-------------------------------------------------------------|
D|--------------------------|-------------------------------------------------------------|
A|--------------------------|---------------------5-4-3-----------------------------------|
E|-5-0-7--5-0-7--5-0-7--5-8-|-5-0-7--5-0-7--5-7----------3-2------------------------------|

G|--------------------------|-------------------------------------------------------------|
D|--------------------------|-------------------------------------------------------------|
A|--------------------------|-------------------------------------------------------------|
E|-5-0-7--5-0-7--5-0-7--5-8-|-5-0-7--5-0-7--5-7-xx--xx--xx--------------------------------|


G|--------------------------|-------------------------------------------------------------|
D|--------------------------|-------------------------------------------------------------|
A|--------------------------|-------------------------------------------------------------|
E|-5-0-7--5-0-7--5-0-7--5-8-|-5-0-7--5-0-7--5-7-------------------------------------------|

1:32
G|------------------|------------------|------------------|--------------------------------|
D|------------------|------------------|------------------|--------------------------------|
A|------------------|-0-1-2-3--00------|------------------|-0-1-2-3--00--------------------|
E|-0-1-2-3--00------|------------------|-0-1-2-3--00------|--------------------------------|

1:43
G|------------------|------------------|
D|------------------|------------------|
A|------------------|-0-1-2-3--0-1-2-3-|
E|-0-1-2-3--0-1-2-3-|------------------|


1:49
G|------------------|------------------|------------------|--------------------------------|
D|------------------|------------------|------------------|--------------------------------|
A|------------------|------------------|-0-1-2-3-0-1-2-3--|-0-1-2-3-0-1-2-3----------------|
E|-0-1-2-3-0-1-2-3--|-0-1-2-3-0-1-2-3--|------------------|--------------------------------|

1:54
G|-----------------|-----------------|-----------------|----------------------------------|
D|-----------------|-----------------|-----------------|----------------------------------|
A|-----------------|-----------------|-----------------|----------------------------------|
E|-0-0-0-0-0-0-3-2-|-0-0-0-0-0-0-3-2-|-3-3-3-3-3-0-1-0-|-3-3-3-3-3-0-1-0------------------|

2:00 Quiet "Oleré y Oleré..."
G|-----------------|-----------------|-----------------|----------------------------------|
D|-----------------|-----------------|-----------------|----------------------------------|
A|-----------------|-----------------|-----------------|----------------------------------|
E|-0-0-0-0-0-0-3-2-|-0-0-0-0-0-0-3-2-|-3-3-3-3-3-0-1-0-|-3-3-3-3-3-0-1-0------------------|

G|-----------------|-----------------|-----------------|----------------------------------|
D|-----------------|-----------------|-----------------|----------------------------------|
A|-----------------|-----------------|-----------------|----------------------------------|
E|-7-7-7-7-7-7-7-7-|-7-7-7-7-7-7-7-7-|-7-7-7-7-7-7-7-7-|-7-7-7-7-7-7-7-7------------------|

G|-----------------|-----------------|-----------------|----------------------------------|
D|-----------------|-----------------|-----------------|----------------------------------|
A|-----------------|-----------------|-----------------|----------------------------------|
E|-7-7-7-7-7-7-7-7-|-7-7-7-7-7-7-7-7-|-7-7-7-7-7-7-7-7-|-7-7-7-7-7-7-7-7------------------|

[Chorus]

2:16 "Oleré y oleré y oleré el UHU..."
G|--------------------------|-------------------------------------------------------------|
D|--------------------------|-------------------------------------------------------------|
A|--------------------------|---------------------5-4-3-----------------------------------|
E|-5-0-7--5-0-7--5-0-7--5-8-|-5-0-7--5-0-7--5-7----------3-2------------------------------|

G|--------------------------|-------------------------------------------------------------|
D|--------------------------|-------------------------------------------------------------|
A|--------------------------|-------------------------------------------------------------|
E|-5-0-7--5-0-7--5-0-7--5-8-|-5-0-7--5-0-7--5-7-------------------------------------------|

[Outro]

2:26
G|------------------|
D|------------------|
A|------------------|
E|-0-1-2-3--0-1-2-3-|

2:28
G|--12-14-------------------------------------|--12-14------------------------------------|
D|--------12-14-10-12-9-10--------------10-12-|--------12-14-10-12-9-10--------9h10-9h10--|
A|-------------------------0-9/10-10-12-------|-------------------------0-9/10------------|
E|--------------------------------------------|-------------------------------------------|

G|--12-14-------------------------------------|--12-14------------------------------------|
D|--------12-14-10-12-9-10--------------10-12-|--------12-14-10-12-9----------------------|
A|-------------------------0-9/10-10-12-------|-------------------------------------------|
E|--------------------------------------------|-------------------------------------------|

2:38
G|------------------|-----------------|
D|------------------|-----------------|
A|------------------|-----------------|
E|-0-1-2-3--0-1-2-3-|-0---------------|


*****************************
| /  slide up
| \  slide down
| h  hammer-on
| p  pull-off
| ~  vibrato
| +  harmonic
| x  Mute note
*****************************

            
            
Suggest correction
Creating personal tab
Creating personal tab
You can edit any tab online and save it as your Personal.

You can edit, replace or remove any tab part or add personal notes – all changes will be seen only by you.

Personal tabs can be accessed anytime from any device, even offline.
Learn more »
Give kudos to tab author, rate the tab!
1 2 3 4 5
comments
print report bad tab
guest
You may want to rate the tab now too:
select rating
Wanna post a correction for this tab? Suggest correction