Oops, an error
Loading. Please wait.

Aivokääpiö chords

172 views 3 this week
no commentswrite comment
1 2 3 4 5
3 more votes to show rating
add to favorites
×
Save as Personal and add changes to this tab that will be seen only by you. Learn more ›
×
You can save this tab as Personal to edit and correct it or add notes. All changes will be seen only by you. Learn more »
launch autoscroll
font size
0
reset
transpose
0
reset
simplify chords
display chords
guitar tuner
edit
Autoscroll
slow
fast
+/-
esc
set tempo
stop
Author
Difficulty
Strumming
There is no strumming pattern for this song yet. and get +5 IQ
Aivokääpiö
By Ismo Alanko http://www.ismoalanko.com
From the album Ismo Kullervo Alanko (2015)
Chords by RTV "TheIronicTea"


[Intro]

Hölmö, pelle, aivokääpiö

Kusipää, mulkku ja idiootti

Tarkoitan hyvää mut' tuhoan kaiken

Tyhmyyksissäni


[Verse]

D
Olen yksinäinen ratsumies
D
Joka pelastaa tän maailman
Hm7
Muttei maailma haluu pelastuu
D
Ei haluu
A                       
Eikä mullakaan voimat riitä
G               D    Em                   
Vaikka niitä on niin paljon
D
Paljon

D
Mieli iltojani kuvittaa
D
Siitä päivittäisen huvin saan
Hm7
Supersankareita tarvitaan
D
tiuhaan
A                           
Jotta kaikki voisi unohtaa et'
G                 Hm A
Pelottaa ja pian jää sulaa


[Chorus]

G              D      C        G
Mä olen hölmö, pelle, aivokääpiö
Hm     F#m         A      Em
Kusipää, mulkku ja idiootti
G              D      C        G
Tarkoitan hyvää mut' tuhoan kaiken
Hm     F#m    A
Tyhmyyksissäni


[Verse]

D
Joku ratsumiestä rakastaa
D
Eikä rakkautta takas saa
Hm7
Miestä lukittua kiroaa 
D
hiljaa

A
Auringonlasku, herra haihtuu
G               D   A
Seura vaihtuu, jää sulaa


[Chorus] x2

G              D      C        G
Mä olen hölmö, pelle, aivokääpiö
Hm     F#m         A      Em
Kusipää, mulkku ja idiootti
G              D      C        G
Tarkoitan hyvää mut' tuhoan kaiken
Hm     F#m    A
Tyhmyyksissäni
G              D      C        G
Mä olen hölmö, pelle, aivokääpiö
Hm     F#m         A      Em
Kusipää, mulkku ja idiootti
G              D      C        G
Tarkoitan hyvää mut' tuhoan kaiken
Hm     F#m    A
Tyhmyyksissäni


[Chorus]

G              D      C        G
Mä olen hölmö, pelle, aivokääpiö
Hm     F#m         A      Em
Kusipää, mulkku ja idiootti


[Solo]

     E                     G                        Hm                       F#m
e|-------------------------------------------------------------------------------|
B|--------------------------------------10------10-------------------------------|
G|--------------11-----11-----------------------------------------11-----11------|
D|---9----7--9------9------7--9----7--9------9------7--9----7--9------9------7---|
A|-------------------------------------------------------------------------------|
E|-------------------------------------------------------------------------------|
     E                                    G                            
e|---------------------------14------14-------------------17------17---|
B|---10-12-10--12---10--12-------12-------10--12---10--12------12------|
G|---------------------------------------------------------------------|
D|---------------------------------------------------------------------|
A|---------------------------------------------------------------------|
E|---------------------------------------------------------------------|

     Hm                           F#m             E
e|--------------------14------14-------10--9-----------|
B|---10--12---10--12------12------10----------10--12---|
G|-----------------------------------------------------|
D|-----------------------------------------------------|
A|-----------------------------------------------------|
E|-----------------------------------------------------|

            
            
Suggest correction
Creating personal tab
Creating personal tab
You can edit any tab online and save it as your Personal.

You can edit, replace or remove any tab part or add personal notes – all changes will be seen only by you.

Personal tabs can be accessed anytime from any device, even offline.
Learn more »
Give kudos to tab author, rate the tab!
1 2 3 4 5
comments
print report bad tab
guest
You may want to rate the tab now too:
select rating
Wanna post a correction for this tab? Suggest correction