Oops, an error
Loading. Please wait.

Din Tid Kommer chords

version 4
version 4

Whole song

2,656 views 9 this week
1 commentread comment
1 2 3 4 5
x 5
add to favorites
×
Save as Personal and add changes to this tab that will be seen only by you. Learn more ›
×
You can save this tab as Personal to edit and correct it or add notes. All changes will be seen only by you. Learn more »
launch autoscroll
font size
0
reset
transpose
0
reset
display chords
guitar tuner
edit
Autoscroll
slow
fast
+/-
esc
set tempo
stop
Author
Difficulty
Strumming
There is no strumming pattern for this song yet. and get +5 IQ
[Intro] 
Samma intro bara att de spelas på olika strängar, välj själv vilket ni trivs bäst med.

e|-------------------------------------------------------------------------|
B|--10-8-7---5-7-5-7--10-8-7---5-7-5-7----8-7---5-7-5-7----8-7---5-7-5-7---|
G|---------7-----------------7----------7-----7----------7-----7-----------|
D|-------------------------------------------------------------------------|
A|-------------------------------------------------------------------------|
E|-------------------------------------------------------------------------|

e|--5-3-2---0-2-0-2--5-3-2---0-2-0-2----3-2---0-2-0-2----3-2---0-2-0-2-----|
B|--------3----------------3----------3-----3----------3-----3-------------|
G|-------------------------------------------------------------------------|
D|-------------------------------------------------------------------------|
A|-------------------------------------------------------------------------|
E|-------------------------------------------------------------------------|
D  G A  D  G A  Bm G A Bm G A - repetera fram till versen börjar


[Verse]

            D
 Jag har letat
            A   G      
 sen jag var liten
         A
 efter stigen
    Bm     A        G
 till toppen av världen
        D
 Mamma sa:
        A   G              A
 "Lille bastard, du är en gåva
          Bm      A    G
 från en prins på genomresa
              A     G   D
 gör nåt jag aldrig klara


[Chorus]

D                        G
 Stig till toppen av världen
      G     Bm  A Bm G A  D   
 Där änglar leker

D                      G
 Res dig efter varje smäll
           G      Bm      A
 Du har en ängel på din axel
           Bm   G
 Din tid kommer
         A    D
 Din tid kommer"

D  G A  D  G A  Bm G A Bm G A

Repetera introt igen


[Verse]

         D          G
 Jag är född av stormen
           A
 Jag ser fågeln
     Bm     A      G
 som river upp världen
                     D
 Jag ser havet bli rött
            A    G
 en säng på dårhuset
Bm         A        G
 väntar på mig nån gång
          A     G      D
 med oceanerna i mina ögon


[Instrumental]

G A D G A Bm G A Bm G A


[Verse]

                 D
 Det finns en plats
                G
 Jag vet att ingen
  Bm           A
 bryr sig om den
              G
 den är bara min
               D
 Bakom ögonlocken
                  G
 skulle tatt dig dit
Bm             A         G
 Om vägen var rak, men vägen
                   A    G       D
 är skruvad som en psykopat min vän


[Chorus]

D                       G
 Stig till toppen av världen
        G   Bm  A Bm G A  D
 Där änglar leker

D                     G
 Res dig efter varje smäll
            G         Bm  A
 Du har en ängel på din axel
           Bm   G
 Din tid kommer
         A    D
 Din tid kommer"


[Outro]

D  G A  D  G A  D  Bm A D Bm A repetera till slut

 (Din tid kommer)
 (Din tid kommer)

            
            
Suggest correction
Creating personal tab
Creating personal tab
You can edit any tab online and save it as your Personal.

You can edit, replace or remove any tab part or add personal notes – all changes will be seen only by you.

Personal tabs can be accessed anytime from any device, even offline.
Learn more »
comments
print report bad tab
1 comment total.
0 reply
Nimr0d87 48 Jun 10, 2017 10:24 AM

Nån som fått till slide-outrot? Kanske svårt att återskapa utan en e-bow men vore nice att få fram nåt liknande

guest
You may want to rate the tab now too:
select rating
Wanna post a correction for this tab? Suggest correction