Oops, an error
Loading. Please wait.

Le Dije A Papá tab

1,213 views 30 this week
no commentswrite comment
1 2 3 4 5
3 more votes to show rating
add to favorites
×
Save as Personal and add changes to this tab that will be seen only by you. Learn more ›
×
You can save this tab as Personal to edit and correct it or add notes. All changes will be seen only by you. Learn more »
launch autoscroll
font size
0
reset
how to read this tab
guitar tuner
edit
Autoscroll
slow
fast
+/-
esc
set tempo
stop
Author
Difficulty
[Intro]

    Am             F            G             Am
e|-------------------------------------------------5-5------------|
B|-------------------------------------------------5-5------------|
G|-------------------------------------------------5-5------------|
D|-------7-6-5---------3-2-1--------5-4-3-------------------------|
A|-----7-------8-7---3------5-3---5-------7-5---------------------|
E|---5-------------1------------3------------(5)------------------|

    Am             F            G             Am
e|-------------------------------------------------5-5------------|
B|-------------------------------------------------5-5------------|
G|-------------------------------------------------5-5------------|
D|-------7-6-5---------3-2-1--------5-4-3-------------------------|
A|-----7-------8-7---3------5-3---5-------7-5---------------------|
E|---5-------------1------------3------------(5)------------------|


[Verse]

  
  Am            F              G             Am
e|---------------------------------------------------5--5------|
B|--------------------------------------------------5--5--5----|
G|------------------------------------------------5------------|
D|-------------------------------------------------------------|
A|-------------------------------------------------------------|
E|-------------------------------------------------------------|
  Parapa parapa, parapa parapa, parapa parapapapa

  Am                  F                   G                    Am
e|------------------------------------------------------------------17-17-17--17-17--17-|
B|--------------------------------------------------------------------------------------|
G|--------------------------------------------------------------------------------------|
D|--------------------------------------------------------------------------------------|
A|--------------------------------------------------------------------------------------|
E|--------------------------------------------------------------------------------------|
  Este ritmo de negros, este ritmo sabroso, este ritmo festejo aquí. 

  Am                  F                   G                    Am
e|------------------------------------------------------------------17-17-17--17-17--17-|
B|--------------------------------------------------------------------------------------|
G|--------------------------------------------------------------------------------------|
D|--------------------------------------------------------------------------------------|
A|--------------------------------------------------------------------------------------|
E|--------------------------------------------------------------------------------------|
   Este ritmo de negros, este ritmo sabroso, este ritmo festejo aquí. 
 
  Am                  F                   G                    Am
e|-------------------------------------------------------------------5------5------5-----(5)-|
B|------------------------------------------------------------------5------5------5----------|
G|----------------------------------------------------------------5--------------------------|
D|-------------------------------------------------------------------------------------------|
A|-------------------------------------------------------------------------------------------|
E|-------------------------------------------------------------------------------------------|
  Este ritmo de negros, este ritmo sabroso, este ritmo festejo aquí. 
 
   Am                  F                   G                    Am
e|-------------------------------------------------------------------5------5------5-----(5)-|
B|------------------------------------------------------------------5------5------5----------|
G|----------------------------------------------------------------5--------------------------|
D|-------------------------------------------------------------------------------------------|
A|-------------------------------------------------------------------------------------------|
E|-------------------------------------------------------------------------------------------|
   Este ritmo de negros, este ritmo sabroso, este ritmo festejo aquí 
 

[Bridge]

             C     Dm            Am
  Yo no había nacido cuando este llegó,
                              C      Dm            Am
  lo hizo, lo hizo, lo hizo un negro que lo conozco yo


[Chorus]
  
  Am            F              G             Am
e|---------------------------------------------------5--5--5----|
B|--------------------------------------------------5--5--5-5---|
G|------------------------------------------------5-------------|
D|--------------------------------------------------------------|
A|--------------------------------------------------------------|
E|--------------------------------------------------------------|
   Parapa parapa, parapa parapa, parapa parapapapa

    Am                  F                   G                    Am
e|------------------------------------------------------------------17-17-17--17-17--17-|
B|--------------------------------------------------------------------------------------|
G|--------------------------------------------------------------------------------------|
D|--------------------------------------------------------------------------------------|
A|--------------------------------------------------------------------------------------|
E|--------------------------------------------------------------------------------------|
  Este ritmo de negros, este ritmo sabroso, este ritmo festejo aquí. 

  Am                  F                   G                    Am
e|------------------------------------------------------------------17-17-17--17-17--17-|
B|--------------------------------------------------------------------------------------|
G|--------------------------------------------------------------------------------------|
D|--------------------------------------------------------------------------------------|
A|--------------------------------------------------------------------------------------|
E|--------------------------------------------------------------------------------------|
   Este ritmo de negros, este ritmo sabroso, este ritmo festejo aquí. 
   
  Am                  F                   G                    Am
e|-------------------------------------------------------------------5------5------5-----(5)-|
B|------------------------------------------------------------------5------5------5----------|
G|----------------------------------------------------------------5--------------------------|
D|-------------------------------------------------------------------------------------------|
A|-------------------------------------------------------------------------------------------|
E|-------------------------------------------------------------------------------------------|
  Este ritmo de negros, este ritmo sabroso, este ritmo festejo aquí. 

  Am                  F                   G                    Am
e|-------------------------------------------------------------------5------5------5-----(5)-|
B|------------------------------------------------------------------5------5------5----------|
G|----------------------------------------------------------------5--------------------------|
D|-------------------------------------------------------------------------------------------|
A|-------------------------------------------------------------------------------------------|
E|-------------------------------------------------------------------------------------------|
   Este ritmo de negros, este ritmo sabroso, este ritmo festejo aquí 


[Lyrics]

     G             Am      G          Am
  Lo hizo Porfirio Vasquez ese gran señor
     G             Am    F
  lo hizo con mucho arte
          G       Am  F G           Am
  y ahora lo canto yo,    lo canto yo...


  Cuando era pequeña yo le dije a papá,

  yo quiero cantar, yo quiero tocar,

  le dije a papá yo quiero ser como tú

  le dije a papá, yo quiero cantar,
  Am          F      G        Am               F
  le dije a papá yo quiero cantar, yo quiero tocar
      G       Am
  le dije a papá (le dije a papá)
         G
  quiero ser tan buena como lo eres tú
                     Am
  le dije a papá, quiero ser tan buena como lo eres tú
                      G
  le dije a papá, quiero ser tan buena como lo eres tú
                     Am
  le dije a papá, quiero ser tan buena como lo eres tú


  Ahora canto, ahora toco y doy gracias a papá

  que buena cantar, que buena tocar

  le dije a papá yo quiero cantar

  le dije a papá quiero ser como tú
  Am                 F               G
  le dije a papá, le dije a papá, le dije a papá...
  Am                                  F
  le dije a papá, le dije a papá, le dije a papá,
     G               Am
  le dije a papá, le dije a papá


************************************
|(n)  Optional note
************************************

            
            
Suggest correction
Creating personal tab
Creating personal tab
You can edit any tab online and save it as your Personal.

You can edit, replace or remove any tab part or add personal notes – all changes will be seen only by you.

Personal tabs can be accessed anytime from any device, even offline.
Learn more »
Give kudos to tab author, rate the tab!
1 2 3 4 5
comments
print report bad tab
guest
You may want to rate the tab now too:
select rating
Wanna post a correction for this tab? Suggest correction