Oops, an error
Loading. Please wait.

Inte Skyldig Nån Nåt chords

403 views 12 this week
no commentswrite comment
1 2 3 4 5
2 more votes to show rating
add to favorites
×
Save as Personal and add changes to this tab that will be seen only by you. Learn more ›
×
You can save this tab as Personal to edit and correct it or add notes. All changes will be seen only by you. Learn more »
launch autoscroll
font size
0
reset
transpose
0
reset
simplify chords
display chords
guitar tuner
edit
Autoscroll
slow
fast
+/-
esc
set tempo
stop
Author
Strumming
There is no strumming pattern for this song yet. and get +5 IQ
[Intro]
C 
C G Am F
C G F

e-------------------------------------------------------|
B-------------------------------------------------------|
G--------------------5----------------------------------|
D-------------5--5-7-----7-5--------5-------------------|
A--7-5-3--5-7----------7------7-5-3---7-5--7-5-3-3-3-3--|
E-------------------------------------------------------|

[Verse]

 C               G               Am      Am7
Så jag hör att du är på kryss med boozen
 C                  G                 Am
Så jag hör att du förklarat krig mot kärleken
F           C         Am              F
Men inte ska du dricka ditt hjärta itu
 C                G                  Am           F           C     
Så du vill bo på Easy Street, aldrig riskera nåt, aldrig växa upp

G Am F C

e-------------------------------------------------------|
B-------------------------------------------------------|
G--------------------5----------------------------------|
D-------------5--5-7-----7-5--------5-------------------|
A--7-5-3--5-7----------7------7-5-3---7-5--7-5-3-3-3-3--|
E-------------------------------------------------------|

       G                  Am       F
Jag är inte skyldig dig nåt längre

[Verse]

C          G              Am
Alla bara babblar i mitt öra
C             G            Am
"Be bop a lula, be bop a lula"
 F              C       Am                   F
Fredrika är på deken, F-F-Fernando är på telefonen
   C              G                     Am            F
Svarar inte, jag är inte skyldig han ett skit längre

C G Am F C

e-------------------------------------------------------|
B-------------------------------------------------------|
G--------------------5----------------------------------|
D-------------5--5-7-----7-5--------5-------------------|
A--7-5-3--5-7----------7------7-5-3---7-5--7-5-3-3-3-3--|
E-------------------------------------------------------|

      G                    Am      F
Jag är inte skyldig nån nåt längre

[Verse]

C                G                       Am  Am7
"Folk säger att framgången förstört dig så"
       C                 G                 Am   
"Jamen, nåt skulle snart ha förstört mig ändå"
          F              C         Am             F
Jag fick stryk av antingen Latino-gängen eller Skinsen
             C                                 G                
Blev pissad på av antingen dörrvakten eller polisen, 
        Am                       F
i klassrummet och på skolgården
                            C       
Jag är inte skyldig nån nåt längre

G Am F C

e-------------------------------------------------------|
B-------------------------------------------------------|
G--------------------5----------------------------------|
D-------------5--5-7-----7-5--------5-------------------|
A--7-5-3--5-7----------7------7-5-3---7-5--7-5-3-3-3-3--|
E-------------------------------------------------------|

      G                     Am     F
Jag är inte skyldig nån nåt längre

[Solo] C G Am F x2

[Verse]

         C                     G                Am
"Somliga säger att låtarna du gjorde var värdelösa"
        C                           G                 Am
"Kanske det, men de var nånting att göra medan man väntar"
 F               C            Am                         F
Somliga säger sånt, somliga säger att det borde varit dem
          C                   G                    Am                F
När du hänger mot repet, lär dig ta slagen eller hoppa upp i matchen

e-------------------------------------------------------|
B-------------------------------------------------------|
G--------------------5----------------------------------|
D-------------5--5-7-----7-5--------5-------------------|
A--7-5-3--5-7----------7------7-5-3---7-5--7-5-3-3-3-3--|
E-------------------------------------------------------|

C G Am F C
      G                 Am         F
Jag är inte skyldig nån nåt längre

C G Am F till slut
Suggest correction
Creating personal tab
Creating personal tab
You can edit any tab online and save it as your Personal.

You can edit, replace or remove any tab part or add personal notes – all changes will be seen only by you.

Personal tabs can be accessed anytime from any device, even offline.
Learn more »
Give kudos to tab author, rate the tab!
1 2 3 4 5
comments
print report bad tab
guest
You may want to rate the tab now too:
select rating
Wanna post a correction for this tab? Suggest correction