Oops, an error
Loading. Please wait.

Nocturne Op 9 No 2 tab

version 6
version 6
2,515 views 114 this week
no commentswrite comment
1 2 3 4 5
x 4
add to favorites
×
Save as Personal and add changes to this tab that will be seen only by you. Learn more ›
×
You can save this tab as Personal to edit and correct it or add notes. All changes will be seen only by you. Learn more »
launch autoscroll
font size
0
reset
how to read this tab
guitar tuner
edit
Autoscroll
slow
fast
+/-
esc
set tempo
stop
Author
Difficulty
Unregistered
Op 9 No 2 - Nocturne in Eb - Chopin (1810-1849)
Arranged by Kaare Norge
Tabulated by Blake -
Key of E - Standard Tuning
http://www.youtube.com/watch?v=c8X2jyoW0Fg (Karre Norge)


  I                 (alternative position below)
e|------4---------------------4-------------------------------|
B|----------------0-------7--------7------0-----5--------0----|
G|-4--------------------------5-------------------------------|
D|-----------6----6--------------------6--6---------6----6----|
A|-----------7----------------------------------6-------------|
E|------0-------------0------------0--------------------------|

   IV
e|-4-----------------9---------------------|
B|--------------------------9/12-----------|
G|-------6h7p6p5-6------6---------------10-|
D|----------------------6------------12----|
A|-4--8--------------8---------9-----------|
E|-----------------------------------------|
  
             II
e|-5---------4-----2------------|
B|-----------2------------------|
G|-----------2-------------4----|
D|-------4---4----------4--4----|
A|-----------------2------------|
E|-2----------------------------|

e|--4-------------------------------------11---9---|
B|---------4-/5-----------------------0------------|
G|-------------------6-----------0-----------------|
D|------6---------6--------------------------------|
A|--3---------4--------------7-------------9-------|
E|-----------------------6------------7------------|

   VII
e|--7------------------------------------------|
B|------10-9-10---------------0------------0---|
G|---------------6--8--9-----------------------|
D|-------------------------6------2------------|
A|-----------------------------------------2---|
E|--7------------------0---------------4-------|

  (alternative positioning below)               IV (optional here)
e|--4-------------------------------------0--------------------|
B|--0----0-----7-9--7h9p7-----7-9---7--------0------7-5p4h5h7--|
G|--1--1-------------------10----------------------------------|
D|------------------7---------------------6--------------------|
A|-----------7----------------------------7------6-------------|
E|--0-------------------------------0--------------------------|

  IV
e|-4------------------------10-9-----------------------|
B|----------------7-6/10-9-------9/12--12--------------|
G|---5/6---6/7-6---------------------------------10----|
D|-------6-----------------------------------12--------|
A|-4---------------------8--------------9--------------|
E|-----------------------------------------------------|

        II
e|-5-----4---2h4p2h4p2h4p2h4p2h4p2h4p2h4p2p1s2h4--|
B|-------2-----------------0----------------------|
G|-------2----------------------------------------|
D|----4--4----------------------------------------|
A|------------------------------------------------|
E|-2----------------------------------------------|
   
e|--4---------------------------------11---9-----|
B|---------4-/5-------------------0--------------|
G|-----------------6----------0------------------|
D|------6--------6-------------------------------|
A|--3---------4-----------7------------9---------|
E|---------------------6----------7--------------|

   VII
e|--7------------------------------|
B|-----10-9-10--------------0------|
G|--------------6--8--9------------|
D|-----------------------6---------|
A|-----------------------------7---|
E|--7-----------------0------------|

            IV          
e|-----------------4---------------------------------|
B|--4-5--7-----------------7--7----------------------|
G|-------------4--------------------------6----------|
D|----------4----------4--------------4-----------4--|
A|---------------------------------4----------4------|
E|-------7---------7----------6----------------------|

                IV
e|---0-0-0-0----------2-----------------------------|
B|---2-2-2-1----4-5-------5-5----------0------------|
G|-------2-2----------2-----------------------------|
D|-----2---------------------------2---6------------|
A|---0-----0--------------------2-------------------|
E|--------------------------0--------------0----7---|

   VII       VI          II       IV           IV
e|--7---------6----------2---------------------------------|
B|------------------9--------------4-------0----5----------|
G|---------7-------------3------6--4------------6----------|
D|-----9--------6--------4---4-----6----6-------6----------|
A|--8---------8---------------------------------4--------4-|
E|-----------------------2---------4-----------------4~----|

      II                  I       II  
e|--------------------------------------------------|
B|-----4--2---4---0-------1--1--2--2---4------------|
G|-----3--3---3-----------2--2--3--3---2------------|
D|-----4--4---4-----------1--1--3--4---4------------|
A|----------------2-------3--0--1------2------------|
E|-----2---------------------------2----------------|
                        
  (1:20:80)
e|--------4---------------------------------------------------------------|
B|--------0-------------0-------9--7-7~---------5----------7--5-4-5--7----|
G|--------1-------3-4-5---6-7-------------------4-------------------------|
D|--------2----------------------------------6----------------------------|
A|------2-----2---------------------------------------6-------------------|
E|---0----------------0---------------------------------------------------|
     p

e|-4-------------------------10-9-----------------------|
B|----------------7-6-/10-9-------9/12--12--------------|
G|---5/6---6/7-6----------------------------------10----|
D|-------6------------------------------------12--------|
A|-4----------------------8--------------9--------------|
E|------------------------------------------------------|

e|-5-----4---2h4p2h4p2h4p2h4p2h4p2h4p2h4p2\1h2/4-|
B|-------2-------------------------0-------------|
G|-------2---------------------------------------|
D|----4--4---------------------------------------|
A|-----------------------------------------------|
E|-2---------------------------------------------|

e|---4------------------------------|
B|----------4-/5--------------------|
G|------------------6----------0----|
D|-------6--------6-----------------|
A|---3---------4------------7-------|
E|----------------------6-----------|

e|------11---10--9-8-7-6-5---------------------0-0~----------------|
B|---0-----------0---------7-------0-----9p7----------------0------|
G|---------------------------8--6-----8-----------------1---1------|
D|------------------------------------------------------2----------|
A|-----------------------------------------------------------------|
E|---7-------------------------------------------0---------------0-|

e|-----------------4---------------------------------|
B|--4-5--7-----------------7--7----------------------|
G|-------------4--------------------------6----------|
D|----------4----------4--------------4-----------4--|
A|---------------------------------4----------4------|
E|-------7---------7----------6----------------------|

                IV
e|---0-0-0-0----------2-----------------------------|
B|---2-2-2-1----4-5-------5-5----------0------------|
G|-------2-2----------2-----------------------------|
D|-----2---------------------------2---6------------|
A|---0-----0--------------------2-------------------|
E|--------------------------0--------------0----7---|

   VII        VI        II        IV            IV
e|--7---------6----------2----------------------------------|
B|------------------9--------------4-------0----5-----------|
G|---------7-------------3------6--4------------6-----------|
D|-----9--------6--------4---4-----6----6-------6-----------|
A|--8---------8---------------------------------4--------4--|
E|-----------------------2---------4-----------------4------|

       II                 I        II
e|--------------------------------------------------|
B|-----4--2---4---0-------1--1--2--2---4------------|
G|-----3--3---3---4-------2--2--3--3---2------------|
D|-----4--4---4---4-------1--1--3--4---4------------|
A|----------------2-------3--0--1------2------------|
E|-----2---------------------------2----------------|

 (2:12:55)                                   IV
e|--------4-------------------------------------------------------------|
B|--------0-------------0-------9--7-7~------5------------7--5-4-5h7----|
G|--------1-------3-4-5---6-7----------------4--------------------------|
D|--------2------------------------------6---6--------------------------|
A|------2-----2---------------------------------------6-----------------|
E|---0----------------0--------------0----------------------------------|

  IV
e|-4-------------------------10-9-------------------------|
B|----------------7-6-/10-9-------9/12--12----------------|
G|---5/6---6/7-6----------------------------------10------|
D|-------6------------------------------------12----------|
A|-4----------------------8--------------9----------------|
E|--------------------------------------------------------|

 (2:23:50)
e|-5-----4---2h4p2h4p2h4p2h4p2h4p2h4p2h4p2\1h2/4-|
B|-------2--------------------0------------------|
G|-------2---------------------------------------|
D|----4--4---------------------------------------|
A|-----------------------------------------------|
E|-2---------------------------------------------|

e|---4----------------------------------------|
B|----------4-/5------------------------------|
G|------------------6----------0--------------|
D|-------6--------6---------------------------|
A|---3---------4-----------7------------------|
E|----------------------6---------------------|

e|------11---10--9-8-7-6-5-----------------4-------2-0-0----------|
B|---0-----------0------------0-1-2-3--4---------------------0----|
G|--------------------------------------------------------1--1----|
D|--------------------------8-----------------------------2-------|
A|----------------------------------------------------------------|
E|---7-------------------------------------------------0----------|

e|--------------|
B|----------0---|
G|------1---1---|
D|------2-------|
A|--------------|
E|---0----------|

  (2:40:53)
e|--0----------2----0----2---4-----------------------|
B|---------1-------------------------0-----------0---|
G|------2--------------------------------------------|
D|-------------------------------6-----------6-------|
A|------------------0----3---------------7-----------|
E|--0----------0-------------0-----------------------|

e|-----------------------------------------0----|
B|--5-------------5--7----5-7-5-7-9-------------|
G|--5-------5-------------5---------------------|
D|-------7------------------------------6-------|
A|-------------7--------------------------------|
E|--0-----------------------------0-------------|

  (2:52:20)
e|----12-11-9--7------6--5---------------------------0-------|
B|----------0------------------------------------------------|
G|--------------------------6-8-9---9h11p9p8-9---9-----------|
D|-----------------------------------------------------------|
A|-----------------9-----------------------------------------|
E|-0-----------0---------0----------0-------------------0----|

e|-16-14-12-11-9--8---7--------------------|
B|----------------7-------11--11-10--10----|
G|-----------------------------------------|
D|-----------------------------------------|
A|------------------------------------9----|
E|----------------7------------7-----------|

e|-----------------------------------------|
B|-9-9--7--5--------0---------------0------|
G|-----------------------------------------|
D|--------------6--------------6-----------|
A|------------------------7----------------|
E|---------0-------------------------------|

 (3:09:45)
e|---------------------------------------------------------12-----|
B|-5------------5--7--5-7-5-7-9---------0---------0---------------|
G|-5------5-----------5-------------------------------------------|
D|-----7-----------------------------6---------6------------------|
A|-7---------7-----------------------------7---------7------------|
E|----------------------------0---------------------------12------|

 (3:16:20)
e|----------------------------------------0---2-----4--------|
B|------------------------------------1-------------5----5---|
G|-------------------------------2------------------4----4---|
D|---------------------------2----------------2----------6---|
A|--0--2--0-------0-----h3-------------------------------7---|
E|------------4-------------------------------------0--------|

e|-12-----11----9---8---7---------------------0--|
B|---------------------------11--10---9---4------|
G|----------------------------------------5------|
D|--------------9--------------------------------|
A|---------9------------9~-----------------------|
E|-----6~-----------7-------------8~----------9--|

                             VII
e|--12------------------9-----8-------------------------7----|
B|-----------------7---------------------7-----------7-------|
G|----------------------9--------------8-----------8---------|
D|------11---------8-----------------9----------7------------|
A|--11-----------------------------9-------------------------| 
E|--------------6-------------7------------------------------|

e|---8-7-9-6-[x8]-------|
B|----------------------|
G|----------------------|
D|----------------------|
A|----------------------|
E|----------------------|
    
e|--8-7--11~--9--/7-----------------------------------------------------|
B|-------------------11-10-9-7-------------------------------------0----|
G|------------------------------8--9------------------------------------|
D|-----------------------------------11--9--7-----7---------------------|
A|--------------------------------------------11--------------7---------|
E|---------------------------------------------------9--11----0---------|

e|----4---0-----------4----0--------------4-----0-------------4-------0~--|
B|----0---0----0------0----0------0-------0-----0------0------0-----------|
G|-------------1------------------1--------------------1--------------1~--|
D|----2~--------------2~------------------2~------------------2-------2~--|
A|--------2~------------------------------------2~------------------------|
E|-------------------------0------------------------------------------0~--|

e|-12~---|
B|--9~---|
G|--9~---|
D|--9~---|
A|-------|
E|-------|

e|-----------|
B|--0~-------|
G|--1~-------|          
D|--2~-------|
A|--2~-------|
E|-----------|


***********************************
| /   Slide up
| \   Slide down
| h   Hummer-on
| p   Pull-off
| ~   Vibrato
***********************************

            
            
Suggest correction
Creating personal tab
Creating personal tab
You can edit any tab online and save it as your Personal.

You can edit, replace or remove any tab part or add personal notes – all changes will be seen only by you.

Personal tabs can be accessed anytime from any device, even offline.
Learn more »
comments
print report bad tab
guest
Wanna post a correction for this tab? Suggest correction