Oops, an error
Loading. Please wait.

Mooie Dag tab

version 3
version 3

Whole song

Interactive

by BLØF
199 views 3 this week
no commentswrite comment
1 2 3 4 5
3 more votes to show rating
add to favorites
×
Save as Personal and add changes to this tab that will be seen only by you. Learn more ›
×
You can save this tab as Personal to edit and correct it or add notes. All changes will be seen only by you. Learn more »
launch autoscroll
font size
0
reset
how to read this tab
guitar tuner
edit
Autoscroll
slow
fast
+/-
esc
set tempo
stop
Author
MOOIE DAG       -       Bløf

intro:  m1
e|1h3----------------------/---------------------------/
B|----1---1h3---3-----1h3--/3-----1h3---3-----1h3---3p1/
G|------2-------2---2------/2---2-------2---2----------/
D|0-----------0-----------0/----------0-----------0----/
A|-------------------------/---------------------------/
E|-------------------------/---------------------------/

m3
e|-------------------------/-----------------------/
B|------0h1-----------3----/------3-----------3----/
G|----0-----0---0h2---2----/0h2---2-----0h2---2----/
D|--2---------2-----0-----0/----------0-----0-----0/
A|0------------------------/-----------------------/
E|--------------1----------/1-----------1---------1/

m5
e|---------------------------/------------------------/
B|--------0h1-----------3----/------3-----------3-----/
G|------0-----0-----0---0---0/--0---0---0---0---0-----/
D|----2---------2-----2------/----2-----------2-------/
A|----------------3----------/3-----------3---------3p/
E|0--------------------------/------------------------/

m7
e|---------------------------/-----------------------/
B|----------------------3----/------3-----------3----/
G|--0---------------0--------/--0-----------0--------/
D|----0---0h2-2h0-----0-----0/----0-----0-----0-----0/
A|2-----2--------------------/-----------------------/
E|----------------3----------/3-----------3----------/

m9: vers 1
  Dm
e|1h3----------------------/---------------------------/
B|----1---1h3---3-----1h3--/3-----1h3---3-----1h3---3p1/
G|------2-------2---2------/2---2-------2---2----------/
D|0-----------0-----------0/----------0-----------0----/
A|-------------------------/---------------------------/
E|-------------------------/---------------------------/
a               De zon, het zand - De hitte en de       
b               De hemel en de Aarde                    

m11
  C/A
e|-------------------------/-----------------------/
B|------0h1-----------3----/------3-----------3----/
G|----0-----0---0h2---2----/0h2---2-----0h2---2----/
D|--2---------2-----0-----0/----------0-----0-----0/
A|0------------------------/-----------------------/
E|--------------1----------/1-----------1---------1/
a  rustige rivier                                   
b  De weidsheid van het land                   En de

m13
  Em              Cadd2
e|---------------------------/------------------------/
B|--------0h1-----------3----/------3-----------3-----/
G|------0-----0-----0---0---0/--0---0---0---0---0-----/
D|----2---------2-----2------/----2-----------2-------/
A|----------------3----------/3-----------3---------3p/
E|0--------------------------/------------------------/
a  De stilte en de droogte                      En de  
b  wijsheid van één man                                

m15
  G
e|---------------------------/-----------------------/
B|----------------------3----/------3-----------3----/
G|--0---------------0--------/--0-----------0--------/
D|----0---0h2-2h0-----0-----0/----0-----0-----0-----0/
A|2-----2--------------------/-----------------------/
E|----------------3----------/3-----------3----------/
a  leegte van dit hier                                
b  Dat is genoeg                                      

m17: Chorus:
e|-----------------------------/-----------------------------/
B|-------3------3------3-------/-------3------3------3-------/
G|---2------2------2------2---2/---0------0------0------0---0/
D|-----3------3------3------3--/-----3------3------3------3--/
A|1----------------------------/-----------------------------/
E|-----------------------------/3----------------------------/
        Er is niets waar ik op wacht - Morgen blijft het 
m19
e|-------------------------/------------3-------------3/
B|---6---5-h6----6---5--6--/--6---5 h6------6---5---6--/
G|-----5-----------5-------/----5----------------------/
D|0------------0-----------/0-------------0---0---0----/
A|-------------------------/---------------------------/
E|-------------------------/---------------------------/
  Nacht Ik overdacht mijn zorgen en de wereld         en

m21
e|----------------------------/----------------------------/
B|------3------3------3-------/------1------3------1-------/
G|--0------0------0------0---0/--0------0------0------0---0/
D|----2------2------2------2--/----2------2------2------2--/
A|3---------------------------/0---------------------------/
E|----------------------------/----------------------------/
  alle keren dat ik wakker     lag  Ik besloot     wat een

m23
e|----------------------------/---------------------------/
B|------0-----1-------0-------/------0-----1------3-------/
G|----0---0-------0------0---0/----0---0------0------0---0/
D|--0-------0-------0------0--/--0-------0------0------0--/
A|----------------------------/---------------------------/
E|3---------------------------/0--------------------------/
  mooie dag, Wat een           mooie dag

m25: vers 2
e|1h3----------------------/---------------------------/
B|----1---1h3---3-----1h3--/3-----1h3---3-----1h3---3p1/
G|------2-------2---2------/2---2-------2---2----------/
D|0-----------0-----------0/----------0-----------0----/
A|-------------------------/---------------------------/
E|-------------------------/---------------------------/
c               De grond, het gras - De wegen naar de   
d               De onzin en de noodzaak                 

m27
e|-------------------------/-----------------------/
B|------0h1-----------3----/------3-----------3----/
G|----0-----0---0h2---2----/0h2---2-----0h2---2----/
D|--2---------2-----0-----0/----------0-----0-----0/
A|0------------------------/-----------------------/
E|--------------1----------/1-----------1---------1/
c  horizon dit trilt                             De 
d  Ze naderen de grens                              

m29
e|---------------------------/------------------------/
B|--------0h1-----------3----/------3-----------3-----/
G|------0-----0-----0---0---0/--0---0---0---0---0-----/
D|----2---------2-----2------/----2-----------2-------/
A|----------------3----------/3-----------3---------3p/
E|0--------------------------/------------------------/
c  tijd is hier de ruimte                           De 
d  De liefde van één mens                              

m31
e|---------------------------/-----------------------/
B|----------------------3----/------3-----------3----/
G|--0---------------0--------/--0-----------0--------/
D|----0---0h2-2h0-----0-----0/----0-----0-----0-----0/
A|2-----2--------------------/-----------------------/
E|----------------3----------/3-----------3----------/
c  diepte hier is wild                                
d         Was mij genoeg                              

m33: Chorus:
e|-----------------------------/-----------------------------/
B|-------3------3------3-------/-------3------3------3-------/
G|---2------2------2------2---2/---0------0------0------0---0/
D|-----3------3------3------3--/-----3------3------3------3--/
A|1----------------------------/-----------------------------/
E|-----------------------------/3----------------------------/
        Er is niets waar ik op wacht        Morgen blijft het 
m35
e|-------------------------/------------3-------------3/
B|---6---5-h6----6---5--6--/--6---5 h6------6---5---6--/
G|-----5-----------5-------/----5----------------------/
D|0------------0-----------/0-------------0---0---0----/
A|-------------------------/---------------------------/
E|-------------------------/---------------------------/
  Nacht Ik overdacht mijn zorgen en de wereld         en

m37
e|----------------------------/----------------------------/
B|------3------3------3-------/------1------3------1-------/
G|--0------0------0------0---0/--0------0------0------0---0/
D|----2------2------2------2--/----2------2------2------2--/
A|3---------------------------/0---------------------------/
E|----------------------------/----------------------------/
  alle keren dat ik wakker     lag  Ik besloot       wat een

m39
e|----------------------------/---------------------------/
B|------0-----1-------0-------/------0-----1------3-------/
G|----0---0-------0------0---0/----0---0------0------0---0/
D|--0-------0-------0------0--/--0-------0------0------0--/
A|----------------------------/---------------------------/
E|3---------------------------/0--------------------------/
  mooie dag, Wat een                              mooie dag

m41: Break
e|-------------0------------/-------------0-------------/
B|------2---------2---------/------2---------2----------/
G|----2----2---------2------/----1----1---------1-------/
D|--2--------2---------2---2/--2--------2----------2---2/
A|2----------------------2--/0-----------------------0--/
E|--------------------------/---------------------------/

m43:
e|-------------0------------/-------------0-------------/
B|------2---------2---------/------2---------2----------/
G|----2----2---------2------/----1----1---------1-------/
D|--2--------2---------2---2/--2--------2----------2---2/
A|2----------------------2--/0-----------------------0--/
E|--------------------------/---------------------------/

m45
e|---------------------------/-------------0-------------/
B|-------------5-------------/------0---------0----------/
G|------4---------4----------/----2----2---------2-------/
D|----4----4---------4-------/--2--------2----------2---2/
A|--6--------6----------6---4/---------------------------/
E|4-----------------------4--/2-----------------------2--/

m47
e|-------------2-------------/-------------0------/----0-/
B|------0---------0----------/------0---------0---/---0--/
G|----2----2---------2----2--/----0----0---------0/--0---/
D|--1--------1--------------1/--2--------2--------/-2----/
A|2---------------------2----/3-------------------/3-----/
E|---------------------------/--------------------/------/


m50: Chorus:
e|-----------------------------/-----------------------------/
B|-------3------3------3-------/-------3------3------3-------/
G|---2------2------2------2---2/---0------0------0------0---0/
D|-----3------3------3------3--/-----3------3------3------3--/
A|1----------------------------/-----------------------------/
E|-----------------------------/3----------------------------/
        Er is niets waar ik op wacht        Morgen blijft het 
m52
e|-------------------------/------------3-------------3/
B|---6---5-h6----6---5--6--/--6---5 h6------6---5---6--/
G|-----5-----------5-------/----5----------------------/
D|0------------0-----------/0-------------0---0---0----/
A|-------------------------/---------------------------/
E|-------------------------/---------------------------/
  Nacht Ik overdacht mijn zorgen en de wereld         en

m54
e|----------------------------/----------------------------/
B|------3------3------3-------/------1------3------1-------/
G|--0------0------0------0---0/--0------0------0------0---0/
D|----2------2------2------2--/----2------2------2------2--/
A|3---------------------------/0---------------------------/
E|----------------------------/----------------------------/
  alle keren dat ik wakker     lag  Ik besloot       wat een

m56
e|----------------------------/---------------------------/
B|------0-----1-------0-------/------0-----1------3-------/
G|----0---0-------0------0---0/----0---0------0------0---0/
D|--0-------0-------0------0--/--0-------0------0------0--/
A|----------------------------/---------------------------/
E|3---------------------------/0--------------------------/
  mooie dag, Wat een                              mooie dag

m58: Chorus:
e|-----------------------------/-----------------------------/
B|-------3------3------3-------/-------3------3------3-------/
G|---2------2------2------2---2/---0------0------0------0---0/
D|-----3------3------3------3--/-----3------3------3------3--/
A|1----------------------------/-----------------------------/
E|-----------------------------/3----------------------------/
        Er is niets waar ik op wacht        Morgen blijft het 

m60
e|-------------------------/------------3-------------3/
B|---6---5-h6----6---5--6--/--6---5 h6------6---5---6--/
G|-----5-----------5-------/----5----------------------/
D|0------------0-----------/0-------------0---0---0----/
A|-------------------------/---------------------------/
E|-------------------------/---------------------------/
  Nacht Ik overdacht mijn zorgen en de wereld         en

m62
e|----------------------------/----------------------------/
B|------3------3------3-------/------1------3------1-------/
G|--0------0------0------0---0/--0------0------0------0---0/
D|----2------2------2------2--/----2------2------2------2--/
A|3---------------------------/0---------------------------/
E|----------------------------/----------------------------/
  alle keren dat ik wakker     lag  Ik besloot       wat een

m64
e|----------------------------/---------------------------/
B|------0-----1-------0-------/------0-----1------3-------/
G|----0---0-------0------0---0/----0---0------0------0---0/
D|--0-------0-------0------0--/--0-------0------0------0--/
A|----------------------------/---------------------------/
E|3---------------------------/0--------------------------/
  mooie dag, Wat een           mooie dag                   

m66:
e|-----------------------------/-----------------------------/
B|-------3------3------3-------/-------3------3------3-------/
G|---2------2------2------2---2/---0------0------0------0---0/
D|-----3------3------3------3--/-----3------3------3------3--/
A|1----------------------------/-----------------------------/
E|-----------------------------/3----------------------------/

m68
e|-------------------------/------------3-------------3/
B|---6---5-h6----6---5--6--/--6---5 h6------6---5---6--/
G|-----5-----------5-------/----5----------------------/
D|0------------0-----------/0-------------0---0---0----/
A|-------------------------/---------------------------/
E|-------------------------/---------------------------/

m70
e|----------------------------/----------------------------/
B|------3------3------3-------/------1------3------1-------/
G|--0------0------0------0---0/--0------0------0------0---0/
D|----2------2------2------2--/----2------2------2------2--/
A|3---------------------------/0---------------------------/
E|----------------------------/----------------------------/
                                                     wat een

m72
e|----------------------------/---------------------------/
B|------0-----1-------0-------/------0-----1------3-------/
G|----0---0-------0------0---0/----0---0------0------0---0/
D|--0-------0-------0------0--/--0-------0------0------0--/
A|----------------------------/---------------------------/
E|3---------------------------/0--------------------------/
  mooie dag, Wat een           mooie dag            Voor de

Outro:  m74
e|1h3----------------------/---------------------------/
B|----1---1h3---3-----1h3--/3-----1h3---3-----1h3---3p1/
G|------2-------2---2------/2---2-------2---2----------/
D|0-----------0-----------0/----------0-----------0----/
A|-------------------------/---------------------------/
E|-------------------------/---------------------------/
  dood

m76
e|-------------------------/-----------------------/
B|------0h1-----------3----/------3-----------3----/
G|----0-----0---0h2---2----/0h2---2-----0h2---2----/
D|--2---------2-----0-----0/----------0-----0-----0/
A|0------------------------/-----------------------/
E|--------------1----------/1-----------1---------1/

m78
e|---------------------------/------------------------/
B|--------0h1-----------3----/------3-----------3-----/
G|------0-----0-----0---0---0/--0---0---0---0---0-----/
D|----2---------2-----2------/----2-----------2-------/
A|----------------3----------/3-----------3---------3p/
E|0--------------------------/------------------------/

m80
e|---------------------------/-----------------------//
B|----------------------3----/------3-----------3----//
G|--0---------------0--------/--0-----------0--------//
D|----0---0h2-2h0-----0-----0/----0-----0-----0-----0//
A|2-----2--------------------/-----------------------//
E|----------------3----------/3-----------3----------//



Dm    xx0231
Am7   x0201x
Em    022000
Cadd2 x32030
G     320033

            
            
Suggest correction
Creating personal tab
Creating personal tab
You can edit any tab online and save it as your Personal.

You can edit, replace or remove any tab part or add personal notes – all changes will be seen only by you.

Personal tabs can be accessed anytime from any device, even offline.
Learn more »
Give kudos to tab author, rate the tab!
1 2 3 4 5
comments
print report bad tab
guest
You may want to rate the tab now too:
select rating
Wanna post a correction for this tab? Suggest correction