Oops, an error
Loading. Please wait.

Age chords

115 views 1 this week
no commentswrite comment
1 2 3 4 5
3 more votes to show rating
add to favorites
×
Save as Personal and add changes to this tab that will be seen only by you. Learn more ›
×
You can save this tab as Personal to edit and correct it or add notes. All changes will be seen only by you. Learn more »
launch autoscroll
font size
0
reset
transpose
0
reset
display chords
guitar tuner
edit
Autoscroll
slow
fast
+/-
esc
set tempo
stop
Author
Difficulty
Strumming
There is no strumming pattern for this song yet. and get +5 IQ
Intro:  (thanks to That_Ship for the help on this)

e-------------------------------------------
b-------------------------------------------
g------------------------11---11---11-11---- (x3)
d------------------------11---11---11-11----
a------------------6---7-----9----9---------
e-9b(10)r(9)-7-4/7---7--------------------9-

e------------------------------------------------- ---------- 
b------------------------------------------------- ---------- 
g-------------------------11-11-11---11-11-------- ---------- 
d-------------------------11-11-11---11-11-------- ---------- 
a------------------6---7-----------9-------------- ---------- 
e-9b(10)r(9)-7-4/7---7---------------------9-9b(10 )r(9)-7-4- 


ALL IN:
B               B                    A            G
Darling am I    looking old         Tell me dear  I must be told
Why'know it's a Million dollar fear If lines Creep in over here

D                    C                     D                    F#
Age she's so afraid  Age she's not the rage Age she's so afraid  Age she's not the rage

B               B               A            G
Alienation is the thing         tell me did you lie a bit
Is my physique holding up       tell me darling  ????

D                    C                     D                    F#
Age she's so afraid  Age she's no the rage Age she's so afraid  Age she's no the rage

B               B               A            G
She never seems to realize Celluloid beauty Never dies
shivering in silhouette    curtsy for the minuet

REPEAT INTRO:

SOLO:   Em      Em      D        C      x3

sax solo: (again thanx for help on this from That_Ship)
e---------------------------------------------------------- 
b---------------------------------------------------------- 
g---------------------------------------------------------- (x2)
d---------------------9-7---------------------------------- 
a-10-7-10-7-10-7-10-7-----10-9-10-9-7----------7---------7- 
e-------------------------------------10-10-10---10/8-10--- 

e-----------------------------------
b-----------------------------------
g-----------------------------------
d-9-9-7-7---------------------------
a---------10-10-9-9-7--7-7-9-7----7-
e------------------------------10---


D                    C                     D                    F#
Age she's so afraid  Age she's no the rage Age she's so afraid  Age she's no the rage

B               B               A            G
Darling am I    looking old    Tell me dear  I must be told
Why'know it's a Million dollar fear If lines Creep in over here

REPEAT INTRO:

SOLO:   Em      Em      D        C      x3
Suggest correction
Creating personal tab
Creating personal tab
You can edit any tab online and save it as your Personal.

You can edit, replace or remove any tab part or add personal notes – all changes will be seen only by you.

Personal tabs can be accessed anytime from any device, even offline.
Learn more »
Give kudos to tab author, rate the tab!
1 2 3 4 5
comments
print report bad tab
guest
You may want to rate the tab now too:
select rating
Wanna post a correction for this tab? Suggest correction