Oops, an error
Loading. Please wait.

请跟我来 Please Follow Me chords

130 views 1 this week
no commentswrite comment
1 2 3 4 5
3 more votes to show rating
add to favorites
×
Save as Personal and add changes to this tab that will be seen only by you. Learn more ›
×
You can save this tab as Personal to edit and correct it or add notes. All changes will be seen only by you. Learn more »
launch autoscroll
font size
0
reset
transpose
0
reset
simplify chords
display chords
guitar tuner
edit
Autoscroll
slow
fast
+/-
esc
set tempo
stop
Author
Strumming
There is no strumming pattern for this song yet. and get +5 IQ
Movie sound track - https://www.youtube.com/watch?v=Yn-DJ4UamWA

BPM=75

[Intro]
E|-3--2-----0-----3--------|-2-----0--2--------------|
A|-------------------------|----------------3--------|
D|-4--2-----0-----4--------|-2-----0--2--------------|
G|-------------------------|-0--------------4--------|
B|-------------------------|-------------------------|
e|-0-----------------------|-------------------------|

E|-3--2-----0-----3--------|-2--3--5--5--------3--5--|
A|-------------------------|-------------------------|
D|-4--2-----0-----4--------|-2--4--5--5--------4--6--|
G|-------------------------|-0-----------------------|
B|-------------------------|-------------------------|
e|-0-----------------------|-------------------------|

  B (fret.7)
E|-7-----------------------|
A|-7-----------------------|
D|-8-----------------------|
G|-9-----------------------|
B|-9-----------------------|
e|-7-----------------------|

[Verse]
  Em                        Am
E|-------0-----------0-----|-------0-----------0-----|
A|-------0-----------0-----|-------1-----------1-----|
D|----0-----0-----0-----0--|----2-----2-----2-----2--|
G|-2-----------0h2---------|-------------0h2---------|
B|-------------------------|-2-----------------------|
e|-------------------------|-------------------------|

  D                         Em
E|-------2-----------2-----|-------0-----------0-----|
A|-------3-----------3-----|-------0-----------0-----|
D|----2-----2-----2-----2--|----0-----0-----0-----0--|
G|-0-----------0-----------|-2-----------0h2---------|
B|-------------------------|-------------------------|
e|-------------------------|-------------------------|

  B (fret.7)
E|-7-----------------------|
A|-7-----------------------|
D|-8-----------------------|
G|-9-----------------------|
B|-9-----------------------|
e|-7-----------------------|


        Em               Am         D                   Em
     wǒ cǎizhe bùbiàn di bùfá, shì wèiliǎo pèihé nǐ dào lái
[男]我  踩 着  不 变   的 步伐, 是   为 了    配合  你  到  来

         Em                  Am       D           Em
     zài huāngzhāng chíyí di shíhòu, qǐng gēn wǒ lái
[男]在   慌   张    迟 疑  的  时 候,  请   跟  我  来

         Em                Am         D                  Em
     wǒ dàizhe mènghuàn di qídài, shì wúfǎ ànnài di qíng huái
[女]我  带 着   梦  幻   的 期 待, 是  无 法 按 捺  的  情   怀

         Em              Am      D           Em  E
     zài nǐ bù zhùyì di shíhòu, qǐng gēn wǒ lái
[女]在  你  不 注 意  的  时 候,  请   跟  我  来

          E        A            A        A           E B7
     bié shuō shén mo,   zhèshì nǐ wúfǎ yùzhī di shìjiè
[女]别   说    什  么,   这 是  你  无法  预知  的  世 界 ~
[男]       别说      什么                             世界

          E              A          A              A         E B7 B7 B (fret.7)
     bié shuō nǐ bùyòng shuō, nǐdi yǎnjīng yǐjīng gàosù liǎo wǒ    a a
[女]别   说   你 不 用   说,   你的  眼 睛   已 经   告 诉  了  我 ~  啊~啊
[男]      别说           你不用说                         了  我 ~  啊~啊

           Em                     Am          D                      Em
     dāng chūnyǔ piāo ya piāo di piāo zài, nǐ dī yě dī bù wán di fà shāo
[合] 当   春  雨  飘  呀  飘   的  飘   在,  你 滴 也 滴  不 完  的  发  梢

         Em                 Am        D           Em   E
     dài zhe nǐdi shuǐjīng zhū liàn, qǐng gēn wǒ lái
[合] 戴 着   你的  水   晶   珠  链,   请   跟  我  来

          E        A            A        A           E B7
     bié shuō shén mo,   zhèshì nǐ wúfǎ yùzhī di shìjiè
[女]别   说    什  么,   这 是  你  无法  预知  的  世 界 ~
[男]       别说      什么                             世界

          E              A          A              A         E B7 B7 B (fret.7)
     bié shuō nǐ bùyòng shuō, nǐdi yǎnjīng yǐjīng gàosù liǎo wǒ    a a
[女]别   说   你 不 用   说,   你的  眼 睛   已 经   告 诉  了  我 ~  啊~啊
[男]      别说           你不用说                         了  我 ~  啊~啊

           Em                     Am          D                      Em
     dāng chūnyǔ piāo ya piāo di piāo zài, nǐ dī yě dī bù wán di fà shāo
[合] 当   春  雨  飘  呀  飘   的  飘   在,  你 滴 也 滴  不 完  的  发  梢

         Em                 Am        D           Em   E
     dài zhe nǐdi shuǐjīng zhū liàn, qǐng gēn wǒ lái
[合] 戴 着   你的  水   晶   珠  链,   请   跟  我  来
Suggest correction
Creating personal tab
Creating personal tab
You can edit any tab online and save it as your Personal.

You can edit, replace or remove any tab part or add personal notes – all changes will be seen only by you.

Personal tabs can be accessed anytime from any device, even offline.
Learn more »
Give kudos to tab author, rate the tab!
1 2 3 4 5
comments
print report bad tab
guest
You may want to rate the tab now too:
select rating
Wanna post a correction for this tab? Suggest correction