Oops, an error
Loading. Please wait.

Daddy Lessons chords

version 4
version 4

Whole song

2,725 views 18 this week
4 commentsread comments
1 2 3 4 5
x 5
add to favorites
×
Save as Personal and add changes to this tab that will be seen only by you. Learn more ›
×
You can save this tab as Personal to edit and correct it or add notes. All changes will be seen only by you. Learn more »
launch autoscroll
font size
0
reset
transpose
0
reset
display chords
guitar tuner
edit
Autoscroll
slow
fast
+/-
esc
set tempo
stop
Author
About this tab version
Including Trumpet Intro and Interlude Solo tabs. Was this info helpful? Yes No
Strumming
There is no strumming pattern for this song yet. and get +5 IQ
[Intro]

*timing of the notes can be improvised*

[Trumpet Solo 1]

Am
e|-5-5-5-8-8\5-8-10-12-10-8-5-8-7-7-10-5-5-0-0-3h5\3-5-5-3h5-8-|
B|-------------------------------------------------------------|
G|-------------------------------------------------------------|
D|-------------------------------------------------------------|
A|-------------------------------------------------------------|
E|-------------------------------------------------------------|

e|12-10-8-12-10-8-5-8-10-8-7-7h8h9h10-7-8-5-5-5-8-10-12-5-12/10|
B|-------------------------------------------------------------|
G|-------------------------------------------------------------|
D|-------------------------------------------------------------|
A|-------------------------------------------------------------|
E|-------------------------------------------------------------|

e|/8h10-10-8-5-12/10/8h10-10-8-5-12-10-8-5-8-5-12-12-10-10-7-7/|
B|-------------------------------------------------------------|
G|-------------------------------------------------------------|
D|-------------------------------------------------------------|
A|-------------------------------------------------------------|
E|-------------------------------------------------------------|

e|8/9/10-7h8-5-5-8-5-8-8-5|
B|------------------------|
G|------------------------|
D|------------------------|
A|------------------------|
E|------------------------|

Am
Texas, Texas, Texas


[Verse 1]

Am                    C                   
Came into this world, daddy's little girl
    G                           F
And daddy made a soldier out of me (ooh-ooh ooh-ooh)
Am                       C                 
Daddy made me dance, and daddy held my hand (ooh-ooh ooh-ooh)
    G                               F
And daddy liked his whisky with his tea
    Am                   C                       
And we rode motorcycles, blackjack, classic vinyl
G                           F
Tough girl is what I had to be


[Pre-Chorus]

        Am                        C                        
He said take care of your mother, watch out for your sister
G                         F
Oh that's when he gave to me


[Chorus 1]

         Am                             C      
With his gun and his head held high, he told me not to cry
                 G                       Am
Oh my daddy said shoot, oh my daddy said shoot
         Am                          C
With his right hand on his rifle, he swore it on the bible
              G                       Am
My daddy said shoot, oh my daddy said shoot
   Am                          C
He held me in his arms, and he taught me to be strong
   G                                      F    
He told me when he's gone, here's what to do
     Am                             C
When trouble comes to town, and men like me come around
                 G                       Am
Oh my daddy said shoot, oh my daddy said shoot

e|--------------|
B|-3/5-3-1------|
G|---------2p0--|
D|--------------|
A|--------------|
E|--------------|


[Verse 2]

Am
  (ooh-ooh ooh-ooh)
Am
  (ooh-ooh ooh-ooh)
Am                      C                  
Daddy made me fight, it wasn't always right
    G                              F
But he said girl it's your second amendment (ooh-ooh ooh-ooh)
   Am                         C                
He always played it cool, but daddy was no fool
    G                              F    
And right before he died he said remember


[Pre-Chorus]

   Am                             C                         
He said take care of your mother, watch out for your sister 
G                           F
That's when daddy looked at me


[Chorus 2]

         Am                             C      
With his gun and his head held high, he told me not to cry
                 G                       Am
Oh my daddy said shoot, oh my daddy said shoot
         Am                          C
With his right hand on his rifle, he swore it on the bible
              G                       Am
My daddy said shoot, oh my daddy said shoot
      Am                          C
Cause he held me in his arms, and he taught me to be strong
       G                                      F    
And he told me when he's gone, here's what to do
     Am                             C
When trouble comes to town, and men like me come around
                 G                       Am
Oh my daddy said shoot, oh my daddy said shoot

e|--------------|
B|-3/5-3-1------|
G|---------2p0--|
D|--------------|
A|--------------|
E|--------------|

[Horn solo]

Am
e|-------------------------------------------------------------------|
B|-2-2-5/7-0-0h1-2-2-2-5-5/7-0-0h1-2-2-2-5-5/7-0-0h1-2-0-2-5-7-9-9/12|
G|-------------------------------------------------------------------|
D|-------------------------------------------------------------------|
A|-------------------------------------------------------------------|
E|-------------------------------------------------------------------|
                 (ooh-ooh ooh-ooh)                   (ooh-ooh ooh-ooh)

e|-------------------------------------------------------------------|
B|-14-2-2-5/7-0-0h1-2-2-2-5-5/7-0-0h1-2-2-2-5-5/7-0-0h1-2-2-2-5-5/7-0|
G|-------------------------------------------------------------------|
D|-------------------------------------------------------------------|
A|-------------------------------------------------------------------|
E|-------------------------------------------------------------------|
                  (ooh-ooh ooh-ooh)                  (ooh-ooh ooh-ooh)

e|-------|
B|-0h1-2-|
G|-------|
D|-------|
A|-------|
E|-------|


[Outro]

         Am                                    C         
My daddy warned me about men like you, he said baby girl 
             G                 Am
He's playing you, he's playing you (ooh ooh-ooh-ooh)
         Am                                    C         
My daddy warned me about men like you, he said baby girl 
             G                 Am
He's playing you, he's playing you (ooh-ooh ooh-ooh)
           Am                             C
Cause when trouble comes in town, and men like me come around
                 G                       F
Oh my daddy said shoot, oh my daddy said shoot (ooh-ooh ooh-ooh)
           Am                             C
Cause when trouble comes in town, and men like me come around
                 G                       Am
Oh my daddy said shoot, oh my daddy said shoot



************************************

| h  Hammer-on
| p  Pull-off
| /  Slide up
| \  Slide down

************************************

            
            
Suggest correction
Creating personal tab
Creating personal tab
You can edit any tab online and save it as your Personal.

You can edit, replace or remove any tab part or add personal notes – all changes will be seen only by you.

Personal tabs can be accessed anytime from any device, even offline.
Learn more »
comments
print report bad tab
4 comments total. Showing first comments.
0 reply
JacksonHoney 12 Apr 28, 2016 11:53 AM

Good But I would do
e|--------------|
B|-3/5-3--------|
G|-------5-2p0--|
D|--------------|
A|--------------|
E|--------------| for an easier flow but that is all preference, it seems like it might be lower but I'm not sure

0 reply
MayaWithaY 56 Apr 28, 2016 01:24 PM, edited at 05:25 pm

If you would like to play it an octave lower, the tablature would be:e|--------------|B|--------------|G|--------------|D|-0h2-0--------|A|-------3-0----|E|-----------3--|

0 reply
MayaWithaY 56 Apr 28, 2016 01:26 PM

e|--------------|
B|--------------|
G|--------------|
D|-0h2-0--------|
A|-------3-0----|
E|-----------3--|

guest
You may want to rate the tab now too:
select rating
Wanna post a correction for this tab? Suggest correction