Oops, an error
Loading. Please wait.

‎carried To Dust album chords

208 views 15 this week
no commentswrite comment
1 2 3 4 5
3 more votes to show rating
add to favorites
×
Save as Personal and add changes to this tab that will be seen only by you. Learn more ›
×
You can save this tab as Personal to edit and correct it or add notes. All changes will be seen only by you. Learn more »
launch autoscroll
font size
0
reset
transpose
0
reset
simplify chords
display chords
guitar tuner
edit
Autoscroll
slow
fast
+/-
esc
set tempo
stop
Author
Difficulty
Strumming
There is no strumming pattern for this song yet. and get +5 IQ
    *****************
    *    Calexico   *
    *****************           


                  ‎Carried To Dust    (2008)
                 ------------------



E-mail: gwendal.mollo@orange.fr
Tabbed by: newg    (http://profile.ultimate-guitar.com/newg/)


Tracklist :

Victor Jara's Hands 
Two Silver Trees        
The News About William  
Sarabande In Pencil Form        
Writer's Minor Holiday  
Man Made Lake   
Inspiracion     
House Of Valparaiso     
Slowness        
Bend To The Road        
El Gatillo (Trigger Revisited)  
Fractured Air (Tornado Watch)   
Falling From Sleeves    
Red Blooms      
Contention City  







----------------------------------------------------------------------------------------------------
                           Calexico - Victor Jara's Hands
----------------------------------------------------------------------------------------------------

Album : Carried to Dust (2008)
Tempo : 82
E-mail: gwendal.mollo@orange.fr
Tabbed by: newg    (http://profile.ultimate-guitar.com/newg/)

    Em            D             Am           Em 
e|-------0-----|-------------|----------0--|--------0---|--------------|
B|-------------|------3--3---|--------1-0--|------0-----|--------------|
G|----0--------|----2----2---|------2------|----0-------|------0-------|
D|--2----------|--0----------|----2--------|--2---------|--0h2---2-0-2-|
A|-------------|-------------|--0----------|------------|--------------|
E|-------------|-------------|-------------|------------|--------------|


Em             D            Am                 Em
   Wire fences still coiled    with flowers of    the night
Em              D                Am                 Em
   Songs of the birds like hands     call the earth      to witness
Em            D     Am               Em           Em
   Sever from fear      before taking    flight

Chorus : 

Em Em/F# Em/G Em/A


Em     Em    D   Am                 
   lélélé...
Em  Em              D       Am                 
      Fences that fail and fall to the ground
Em     Em    D   Am                 
   lélélé...
Em     Em    D   Am                 
   lélélé...
Em  Em             D     Am          Em
       Bearing the fruit from Jara's hands

Em                    D    Am                      Em
  Me siento solo y perdido    una vela alumbra mi camino
D
   Cruzando tierras que nunca he visto
Am                       Em
   Cruzando el rio de mi destino
Em                   D   Am                       Em
   Solo soy un chico mas    que suena en alto y mirando al mar

[Chorus] x2





                  ~~~~~~~~~~~~~~~~~~~~~~~~~~~~~~~~~~~~




----------------------------------------------------------------------------------------------------
                                  Calexico - Two Silver Trees
----------------------------------------------------------------------------------------------------

Album : Carried to Dust (2008)
Tempo : 110
E-mail: gwendal.mollo@orange.fr
Tabbed by: newg

Thanks to vonssi and Glennu2 for their help.

Intro : 
  Dm            A#                    A#              C           C
e|----10---10---10-8----------|    e|------------------8---------|
B|-------------------10-8-----| X2 B|---8----8----8-10-----------|
G|------------------------10--|    G|----------10----------------|
D|----------------------------|    D|----------------------------|
A|----------------------------|    A|----------------------------|
E|----------------------------|    E|----------------------------|


Dm Dm/C x8

  
Dm      Dm/C       Dm    Dm/C        Dm    Dm/C    Dm  Dm/C
There are code breakers         with lines well tapped
Traces sweeping out                  across the static night
You are draped in white              like the blossoms of the tree
Looking down a glass elevator          at your father signing the papers for
   Two silver trees                    two silver trees
   Two worlds in need                  two silver trees

[Chorus]
Dm               A#
Branches falling down
Dm            A#
Sources underground
Dm          A#
False identities
A#                      C        C
Stranded in each single seed

Dm Dm/C x4

Dm      Dm/C       Dm    Dm/C        Dm    Dm/C    Dm  Dm/C
False sense of warning                no poisoned cup
Just deception crawling               up like a snake
Decay of the blossoms                 and roots well hacked
Spoil the hidden waters              dying at the base of
   Two silver trees                    two silver trees
   Two worlds in need                  two silver trees


[Chorus] x2

Dm     Dm/C 
Dm     Dm/C 
Dm





                  ~~~~~~~~~~~~~~~~~~~~~~~~~~~~~~~~~~~~




----------------------------------------------------------------------------------------------------
                                   Calexico - The News About William
----------------------------------------------------------------------------------------------------

Album : Carried to Dust (2008)
Tempo : 3/4  134
E-mail: gwendal.mollo@orange.fr
Tabbed by: newg

I use this acoustic version : https://www.youtube.com/watch?v=Qfz2L4OPfGQ
  
  Riff 1       Riff 2       Riff 3
e|----------| |----------| |----------|
B|----------| |----------| |----------|
G|----------| |----------| |----------|
D|----------| |----------| |-0--------|
A|----------| |--3-2-0---| |---3-2----|
E|-3-1-0----| |----------| |----------|


Csus2/D : xx001x
Am7     : x02213
C/G     : 332010
Cadd9/G : 330010
E7      : 020100
Am/C    : xxx555
C       : x32010 with  x30010



Csus2/D  Am     Repeat

Am    Am7 
C/G  Cadd9/G C/G  
Am    Am7 
C/G  Cadd9/G C/G  
G [Riff 1] Dm
Am E E7


Csus2/D  Am     Repeat



Am              C                       Am
   Four in the morning the sidewalk's asleep
            C         [Riff 2]       G
Dogs on the porch and spiders on the leaf
[Riff 1]       Dm     [Riff 3]        Am 
Shipwrecked by night, sailing through days
[Riff 4] E       E7            Am
Nobody   noticed that slipping away

Csus2/D  Am     Repeat
Am C Am C

Am                C                       Am
   Connecting the dots with thorns in his side
               C            [Riff 2]      G
Boarded up the windows with pain and with pride
[Riff 1]      Dm                       Am 
The music box broken that once was his soul
    [Riff 4]    E        E7             Am
It's sad little song spinning out of control

Am    Am7 
C/G  Cadd9/G C/G  
Am    Am7 
C/G  Cadd9/G C/G  
Am    Am7 
C/G  Cadd9/G C/G  
G [Riff 1]

G               C/G                         G 
  Then came the storm that washed the roads out
                C/G                       G 
Closed both his eyes and pointed straight south
[Riff 1]      Dm                   Am
Second line drums marched into the sea
                     E              Am
While the clouds overhead cried mutiny
                E                    Am
They parted for Cathy and her bitter news
             Dm                   Am
As her words failed, the sky grew dim
             E                       Am
Recalled how close to that exit I've been

Am   C/G   x3
G [Riff 1] Dm
Am E E7
Am 

C/G               Am   C/G                Am
    Ours not to reply,     ours not to reason why
C                      G
  Well, the news about William
    F          C         C              F
The lifeline resist, the desire for the breeze
    Am
The thorns in his side

Am/C





                  ~~~~~~~~~~~~~~~~~~~~~~~~~~~~~~~~~~~~




----------------------------------------------------------------------------------------------------
                           Calexico - Writer's Minor Holiday
----------------------------------------------------------------------------------------------------

Album : Carried to Dust (2008)
Tempo : 136
E-mail: gwendal.mollo@orange.fr
Tabbed by: newg    (http://profile.ultimate-guitar.com/newg/)

Play the Am alternativly with a F7M/A (x02211)

C C F G x3

C C C C 

Am 
Writer's Minor Holiday, thumb tacks spread out
 F                   C      Fm                  G
Across your hometown state, hollow tree at half mast
Am
Wait until wintertime
F                C        Fm                    G      G
  Leaves a paper trail, a licorice plant that's over___grown

       C    C  F G      C    C  F G               
Like a cabin     in the woods   on a minor
C    C  F      G         C   C C C 
        Like a minor holiday

Am
Woolrich red plaid wolf
F             C                    Fm          G
Irish whiskey glass, here comes my fine bright haired lass
A
Like a trash fire burning and burning it
   F                 C      Fm                  G    G
My heart could never right,    the words never fail

Dm   A                   Dm  A            Dm     A
       Tucked under your cap    and for a moment
          A#        A#            G    G      C
There's a stillness    before the room spins again

  
C  F   G          C    C  F      G   C   
     A Minor holiday,      spin it again
C  F         G          C    C C C C 
     Ride it out so you can tell

Am
Wasted on the weekend
            F              C               Fm                  G         G
Making good time with my excuse, where the plot lines are like dead ends
                C    C  F        G            C    
Floating in her eyes      at the bottom of a well
C  F  G             C    C  F   G           C      C      
    Floating in her eyes        ride it out for a spell
F     G         C    C  F    G        C     C  F    G
 On a Minor holiday     Transfer this weight
F     G         C    C  F    G        C     C 
 On a Minor holiday     Transfer this weight
F     G         C    C  F    G         C     C 
 On a Minor holiday        a Minor holiday 
F     G         C    C  F      G              C      
 On a Minor holiday      Going back and forth
  C       F      G   C (strum one time till the end) 
a minor,   minor holiday
  F     G   C     
A minor holiday





                  ~~~~~~~~~~~~~~~~~~~~~~~~~~~~~~~~~~~~




----------------------------------------------------------------------------------------------------
                           Calexico - Man Made Lake
----------------------------------------------------------------------------------------------------

Album : Carried to Dust (2008)
Tempo : 92
E-mail: gwendal.mollo@orange.fr
Tabbed by: newg    (http://profile.ultimate-guitar.com/newg/)

Gmadd11 : 335333
Dm/C    : x3x231
Dm/F    : xx3231   (or 1xxxxx just slide with the Gm)


Gm      Dm/C

Dm      Dm/C      \
Dm      Dm/F       \  
Gm      Gmadd11    /  x2
Gm      Gmadd11   /


          Dm                            Gm 
I'm gonna walk these streets of cold concrete
           Dm                      Gm 
Like I'm a ghost searching for its grave
          Dm           Am           Dm       Gm 
Then I'll dwell by the edge of this man made lake
      F     C         D#    D#                         Dm  Gm 
And descend  into the city     that holds no place for me

        Dm                      Gm 
But the streets with no stir of life
            Dm                                 Gm 
And all the houses on the streets,  are wholly submerged
          Dm         Am              Dm         Gm 
Then I'll gather the leaves from the cell phone trees
      F         C          D#    D#                                  Dm  Gm 
And return them   to their place   and pretend someone's calling for me
                      Dm   Gm
Someone's calling for me
                      Dm   Gm
Someone's calling for me

Dm Gm
Dm





                  ~~~~~~~~~~~~~~~~~~~~~~~~~~~~~~~~~~~~








                  ~~~~~~~~~~~~~~~~~~~~~~~~~~~~~~~~~~~~




----------------------------------------------------------------------------------------------------
                                    Calexico - House Of Valparaiso
----------------------------------------------------------------------------------------------------

Album : Carried to Dust (2008)
Tempo : 161
E-mail: gwendal.mollo@orange.fr
Tabbed by: newg    (http://profile.ultimate-guitar.com/newg/)

Capo 3

Intro :
  Am      C            Dm      G6
e|-0------0----3-----|--1------0------------------|
B|-1------1----1-----|--3------0---0-1-0-1-0-1-0--|         ( / : repeat the chord)
G|-2------0----0-----|--2------0---0-0-0-0-0-1-0--|
D|-2-///--2-//-2-///-|--0-///--0-/----------------|
A|-0------3----------|---------2------------------|
E|-------------------|---------3------------------|  x2

Solo Trumpet : 
e|---------------------------3---1---|           |------------------|
B|-3-5.-3-5.-3-5.--5-5-6-3-----------|           |------0--1-3-1----|
G|-----------------------------------|           |--0h2-------------|
D|-----------------------------------|           |------------------|
A|-----------------------------------|           |------------------|
E|-----------------------------------| Repeat    |------------------|



Am              C            Dm                G                     Am
Dialing in a forgotten voice,   Coming in like waves rolling off the coast
                   C           Dm                G                       Am
Sweeping through illegal ports,  Rising from the depths, falling off the tongue
                   C        Dm                G                     Am
Ships drifting out of tune,    Coming in like waves rolling off the coast
           G    Am                G         Am             G      Am         G
Many, many more,    sculpting the shoreline,   Etching the harbor    and the people
G          Am    
   stayed afloat

Am     Dm                G                     Am
          Coming in like waves rolling off the coast
Am              C            Dm                  G                       Am
Dialing in a forgotten voice,    Rising from the depths, falling off the tongue
Am                 C           Dm                G                     Am
Sweeping through illegal ports,   Coming in like waves rolling off the coast
Am             C            Dm                G                   Am
Ships drifting out of tune,    Can't stop the waves coming like a ghost
Am             G     Am                     G
  Is that your shape,    in the foam of the sea
Am                G     Am                G
  After all these years,   coming home to me?

Am  Am G  Dm   Am     Am G Dm
La  Chascona,  hearts to ocean
C     C      G    G  
Lying in the bath   fully clothed
Dm            Am     C     Dm  
Ready for the ocean's wake,    
    G           Am    C   Dm     G   Am     C    Dm G
The tears won't wash away,  her eyes can't erase

Am C G G 
Am C G G             Am C G G     Am C G G
     Not safe to say,       in her      native tongue
Am C G G
       A radio voice drowning out
Am C G G
       The general's song lingering on
Am C G G
       A raft made of books from a driftwood house
G                  Am
    Returns to the waves





                  ~~~~~~~~~~~~~~~~~~~~~~~~~~~~~~~~~~~~




----------------------------------------------------------------------------------------------------
                           Calexico - Slowness
----------------------------------------------------------------------------------------------------

Album : Carried to Dust (2008)
Tempo : 129 or 65
E-mail: gwendal.mollo@orange.fr
Tabbed by: newg    (http://profile.ultimate-guitar.com/newg/)

a verifier

4;20

http://www.youtube.com/watch?v=NTaMaYExIjE


Chords:
    C  Em Dm G  F ?/G# Am D* Fmaj7 C/B G/B
e|--0--0--1--3--1---x--0--0---0------------|
b|--1--0--3--3--1---x--1--3---1-----1---3--|
g|--0--0--2--0--2---x--2--0---2-----0---0--|
D|--2--2--0--0--3---x--2--4---3-----x---x--|
A|--3--2-----2--3--(3)-0--5--(3)----2---2--|
E|-(3)-0-----3--1---4-----x----------------|

C                         Em
Miles of highway poppies,    stretch of maybe flowers
Dm                   G
  Past Signal Hill a ways
C                        Em  
  We were parked and searching
                 Dm                      G
For a hubcap rolling  into the fields of thorns

F            G       ?/G#   Am         D*
 Although we couldn't see a thing that night

C  Fmaj7          C  Fmaj7           C  Fmaj7
Stars    in their slowness, in their slowness
C/B     G/B   C      C
Took us by surprise

C                     Em                          
  If I never told you    how you helped to rescue
Dm                  G
  The car and all inside
C                           
 Remember roads were steep and
Em                        Dm                         G
   You and I went sliding down the grade from Gate's Pass

F    G         ?/G#   Am       D*     D     C
You asleep and me   behind the wheel    hovering

Fmaj7       C        Fmaj7
    In that slowness
         C         C/B   G/B   C
And that slowness, never gone away

C Em Dm G x2

F             G        ?/G#  Am    D*
  Although we couldn't see a thing   

    C     Fmaj7      C     Fmaj7
The Stars      still shone         x3

         C        Fmaj7
In their slowness
         C
And their slowness
F          F      C  F
  has never  gone a__way





                  ~~~~~~~~~~~~~~~~~~~~~~~~~~~~~~~~~~~~




----------------------------------------------------------------------------------------------------
                           Calexico - Bend To The Road
----------------------------------------------------------------------------------------------------

Album : Carried to Dust (2008)
Tempo : 144
E-mail: gwendal.mollo@orange.fr
Tabbed by: newg    (http://profile.ultimate-guitar.com/newg/)

Play the verse with the riff. It's sound good too with this chords : Gm Dm Cm Gm

   Riff 
e|--------|--------------|---------------|---------------|----------------|
B|--------|--------------|---------------|---------------|----------------|
G|--------|-0------------|---------------|---------------|----------------|
D|--0h-3--|----------3---|--0--------3---|-----------1---|--0--------0h-3-|
A|--------|--------------|---------------|--1------------|----------------|
E|--------|--------------|---------------|---------------|----------------|


           |-------------|---------------|---------------|----------------|
           |-------------|---------------|---------------|----------------|
           |--0----------|---------------|---------------|----------------|
           |----------3--|--0--------3---|---------------|-----------0h-3-|
           |-------------|---------------|--3------3h-5h-|-3--1-----------|
           |-------------|---------------|---------------|-------3--------|

  Riff 2 
    Gm
e|------------------|
B|------------------|
G|--------------0---|
D|---------0h-3-----|
A|------------------|
E|--3--3------------|


[Riff] x2

[Riff]
Watching your eyes go back and forth
Out on the highway
Watching your heart bend to the road
Kiss your forehead as I turn to go

Gm  A# Cm                 D  
          Following those signs
Gm             A# Cm    D  
   driving out        Only 

[Riff 2]
engine smoke, frozen in a cloud
Wishing the space would remain
                         
Cm         Cm               Dm               Dm         Gm
   Holding back your tears,     from letting go of your heart
A#        Cm                   Dm
  Leaving    the middle of the road
Cm         Cm        Dm        Dm 
   Letting go just a little bit
        Gm   A#        Cm                 Dm    Dm                      
Till it all spills out    the side of the road

[Riff] x2

[Riff]
Hole in the sea, hole in the heart
There's a hole in your hand where the money just falls
And the pain falls right through
The hole in your head wears right through
The hole in all your plans
There's a hole that shines right through 
shines right through 





                  ~~~~~~~~~~~~~~~~~~~~~~~~~~~~~~~~~~~~




----------------------------------------------------------------------------------------------------
                           Calexico - Fractured Air (Tornado Watch)
----------------------------------------------------------------------------------------------------

Album : Carried to Dust (2008)
Tempo : 152
E-mail: gwendal.mollo@orange.fr
Tabbed by: newg    (http://profile.ultimate-guitar.com/newg/)

C7M/E  / 022010
Asus2  / x02200

     Em       Am
e|----------------0--|
B|------0-------1----|
G|----0----0--2------|
D|--2-----2----------|
A|-------------------|
E|-------------------|

    Am   Asus2          Riff trumpet
e|--0-------------|   |----------------|
B|--1--1-0-1-0----|   |----------------|
G|--2-------------|   |---4--2-4-2-4---|
D|--2-------------|   |----------------|
A|--0-------------|   |----------------|
E|----------------|   |-0--------------|



Em                Am
   From the delta    to the plains
Em                 Am
   Storms touching down again
Em                Am
   Devil's hiding in the house
Bm            Bm
   Angel's in the rain

Em            Am      
   Corrugated lovers  
Em                  Am
swimming on the wire
Em                       Am
Switching on and off the breakers
G                 Bm
  On a night like this
   G          Bm  Am    Am Asus2
No one should be alone


       G         Bm
In the fractured air
   Am    Am  Asus2         G        Bm
Misfired            from a distress flare
C             C           C         C
All the while searchlights reconcile
                     Em  
Cut their losses and run

Em  C7M/E    Am  Asus2   X4


Em                Am
  Clinging to the rooftop
Em                 Am
Losing track of days
Em                Am
Devil's up in the attic
G                Bm
Angel's lost her way

Em                    Am
Must've misdialed the number
       Em          Am
Or the telephone's died
Em              Am
Lost you in the darkness
    G           Bm
And never heard back
G                    Bm
Dropped out from the night
       Am Asus2
Like a stone

                 G         Bm      
Falling from the fractured air
   Am    Am  Asus2        G        Bm
Misfired           like a distress flare
C             C           C         C
All the while searchlights reconcile
                     Em  
Cut their losses and run

[Riff trumpet]

Em Am ...





                  ~~~~~~~~~~~~~~~~~~~~~~~~~~~~~~~~~~~~




----------------------------------------------------------------------------------------------------
                           Calexico - Red Blooms
----------------------------------------------------------------------------------------------------

Album : Carried to Dust (2008)
Tempo : 82
E-mail: gwendal.mollo@orange.fr
Tabbed by: newg    (http://profile.ultimate-guitar.com/newg/)

Bsus2 : x24422
Em/A  : x02203
A/G   : 302220
A/F#  : 202220
Bm7   : x24235
G/F#  : 2x0003
Bm/A  : x04432
G5/D  : xx0032

Intro (piano) :
   Bm Bsus2   Bm Bsus2  Em/A      Em/A
e|--7------|--10-----|--12-----|---9-----|
B|--7------|---7-----|--12-----|--10-----|
G|---------|---------|---------|---------|
D|---------|---------|---------|---------|
A|---------|---------|---------|---------|
E|---------|---------|---------|---------|


Bm Bsus2 Bm Bsus2  Em/A  Em/A  x2


Bm         D               Bm           D              A
  When the fists of winter fly, driving bones into the snow
          Em          A             G
Blackened frostbitten nights, Vodka running dry
Bm    D               Bm     D               A
   statues cloaked in white, migrants from museums
       Em              A             
Losing all the feeling now

     G       G     G/F#   D  A         A/G   A/F#  Em     Em   Em/F#
that sunrise is outlawed,    Strangers plant them__selves
G             G    G/F#  D         A                      A
  Down in the cold hard  ground,   Later when the harvest thaws
A
Snow drops will be in bloom


Bm Bsus2 Bm Bm7  Em/A  Em/A  x2


Bm            D         Bm        D           A
  Crossed out   on city maps, prospekt Mira reveals
        Em           A                 G
Shadows drinking antifreeze, Neath the underpass
Bm         D              Bm         D               A
   Ordered once a gulag’s march, now cities send the call
        Em                 A             
Falling from the rooftops fast          

    G       G      G/F# D            A         A/G   A/F#  Em     Em   Em/F#
And frozen against the  wall,  Where strangers plant them__selves
G                   G G/F#  D             A        D
  Dead souls of the under___ground,  When February thaws
A                  A           D    D
Snow drops will be   in bloom again

Bm       Bm/A         D            G5/D
               bloom again             x4

Bm          Bm/A      D            G5/D
Red blooms, red blooms 

Outro : 
Bm          Bm/A      D            G5/D       x4

Bm

            
            
Suggest correction
Creating personal tab
Creating personal tab
You can edit any tab online and save it as your Personal.

You can edit, replace or remove any tab part or add personal notes – all changes will be seen only by you.

Personal tabs can be accessed anytime from any device, even offline.
Learn more »
Give kudos to tab author, rate the tab!
1 2 3 4 5
comments
print report bad tab
guest
You may want to rate the tab now too:
select rating
Wanna post a correction for this tab? Suggest correction