Oops, an error
Loading. Please wait.

リサフランク420 現代のコンピュー intro tab

version 2
version 2

Intro

Whole song

Interactive

4,471 views 87 this week
1 commentread comment
1 2 3 4 5
x 7
add to favorites
×
Save as Personal and add changes to this tab that will be seen only by you. Learn more ›
×
You can save this tab as Personal to edit and correct it or add notes. All changes will be seen only by you. Learn more »
launch autoscroll
font size
0
reset
how to read this tab
guitar tuner
edit
Autoscroll
slow
fast
+/-
esc
set tempo
stop
Author
The chords for the song can be found here -
https://tabs.ultimate-guitar.com/tab/1737975

MAIN RIFF (repeated throughout most of the song)

The riff is made up of two melody lines played at the same time.


Guitar 1
e|------2----2-0---------------------0-5-------------------2-0------------2-------------------|
B|--0------------3-2-2----3-------------------0-3--------------3-2-2----0---------------------|
G|--------------------------------------------------------------------------------------------|
D|--------------------------4-----------------------------------------------------------------|
A|--------------------------------------------------------------------------------------------|
E|--------------------------------------------------------------------------------------------|

Guitar 2 
e|---------2-0---------------------7-5----------------2----2-0--------------------------------|
B|-------------3-2-2----3-0-----------------------0------------3-2-2--------------------------|
G|--------------------------------------------------------------------------------------------|
D|--------------------------------------------------------------------------------------------|
A|--------------------------------------------------------------------------------------------|
E| -------------------------------------------------------------------------------------------|


Use this if you want to play it on one guitar:

e|------2----2-0---------------------7-5---------------2----2-0------------2------------------|
B|--0------------3-2-2----3-0-------(5)--------0-3-(0)----------3-2-2----0--------------------|
G|--------------------------------------------------------------------------------------------|
D|-------------------------(4)----------------------------------------------------------------|
A|--------------------------------------------------------------------------------------------|
E|--------------------------------------------------------------------------------------------|

The notes in the brackets are optional. The (4) requires fingerpicking to be played.

            
            
Suggest correction
Creating personal tab
Creating personal tab
You can edit any tab online and save it as your Personal.

You can edit, replace or remove any tab part or add personal notes – all changes will be seen only by you.

Personal tabs can be accessed anytime from any device, even offline.
Learn more »
comments
print report bad tab
1 comment total.
0 reply
jackpilson115 10 Sep 15, 2017 10:05 PM

its good, alright i said i it.

guest
You may want to rate the tab now too:
select rating
Wanna post a correction for this tab? Suggest correction