Oops, an error
Loading. Please wait.

Powerline bass

55 views 3 this week
no commentswrite comment
1 2 3 4 5
3 more votes to show rating
add to favorites
×
Save as Personal and add changes to this tab that will be seen only by you. Learn more ›
×
You can save this tab as Personal to edit and correct it or add notes. All changes will be seen only by you. Learn more »
launch autoscroll
font size
0
reset
guitar tuner
edit
Autoscroll
slow
fast
+/-
esc
set tempo
stop
POWERLINE BY HÜSKER DÜ (Bass Tab)
Tabbed by Aaron Kavanagh (aaronkavoucas@gmail.com)
May 3rd, 2016.

TUNING: Standard tuning.

[Intro]

G|-----------12--12--------12--12---------12--12--11-11-11-11-11-11|
D|--12-12-12---12--12-12-12--12---12-12-12--12----0--0--0--0--0--0-|
A|-----------------------------------------------------------------| x2
E|-----------------------------------------------------------------|

 

[Verse]
 
 Play six times (two before vocals, four with vocals)
 When the verse is played later, only play it four times.

G|-------------------------------------------------------------------|
D|--------------------------------10-10-10-10-10-10-10-12-12-12-12-12|
A|--10-10-10-10-10-10-13-13-13-13------------------------------------| x2
E|-------------------------------------------------------------------|

G|-------------------------------------------------------------------|
D|--------------------------------10-10-10-10-10-10-10-12-12-12-12-12|
A|--10-10-10-10-10-10-13-13-13-13------------------------------------| x4
E|-------------------------------------------------------------------|
Strung high on every pole
How can this power be bought and sold?
Trying to harness solar rays
Making minutes seem like days


[Chorus]

G|----------------------------------------------------------------|
D|-----------------10-10-10-10-10-10----------------12-12-12-12-12|
A|--13-13-13-13-13-------------------10-10-10-10-10---------------| x4
E|----------------------------------------------------------------|
It aggravates, and it pacifies
Hear the power in the lines


[Verse]

G|-------------------------------------------------------------------|
D|--------------------------------10-10-10-10-10-10-10-12-12-12-12-12|
A|--10-10-10-10-10-10-13-13-13-13------------------------------------| x4
E|-------------------------------------------------------------------|
Strung high on every pole
How can this power be bought and sold?
Trying to harness solar rays
Making minutes seem like day


[Chorus]

G|----------------------------------------------------------------|
D|-----------------10-10-10-10-10-10----------------12-12-12-12-12|
A|--13-13-13-13-13-------------------10-10-10-10-10---------------| x4
E|----------------------------------------------------------------|
It aggravates, and it pacifies
Hear the power in the lines 


[Verse]

G|-------------------------------------------------------------------|
D|--------------------------------10-10-10-10-10-10-10-12-12-12-12-12|
A|--10-10-10-10-10-10-13-13-13-13------------------------------------| x4
E|-------------------------------------------------------------------|


[Outro]

G|-----------12--12--------12--12---------12--12--11-11-11-11-11-11---|
D|--12-12-12---12--12-12-12--12---12-12-12--12----0--0--0--0--0--0--12|
A|--------------------------------------------------------------------|
E|--------------------------------------------------------------------|

            
            
Suggest correction
Creating personal tab
Creating personal tab
You can edit any tab online and save it as your Personal.

You can edit, replace or remove any tab part or add personal notes – all changes will be seen only by you.

Personal tabs can be accessed anytime from any device, even offline.
Learn more »
Give kudos to tab author, rate the tab!
1 2 3 4 5
comments
print report bad tab
guest
You may want to rate the tab now too:
select rating
Wanna post a correction for this tab? Suggest correction