Oops, an error
Loading. Please wait.

Sol De Março Acoustic chords

364 views 3 this week
no commentswrite comment
1 2 3 4 5
3 more votes to show rating
add to favorites
×
Save as Personal and add changes to this tab that will be seen only by you. Learn more ›
×
You can save this tab as Personal to edit and correct it or add notes. All changes will be seen only by you. Learn more »
launch autoscroll
font size
0
reset
transpose
0
reset
simplify chords
display chords
guitar tuner
edit
Autoscroll
slow
fast
+/-
esc
set tempo
stop
Strumming
There is no strumming pattern for this song yet. and get +5 IQ
[Intro]

Dm 5x

          Dm
E|---------0---------|
B|-----1------1---1--|
G|---2---2------2----|
D|-------------------|
A|0------------------|
E|-------------------|


[Verse]

          Dm                Dm/B                  Bb                  Dm/E
E|---------0---------|---------0---------|-------------------|-------------------|
B|-----1------1---1--|-----1------1---1--|---------0---------|---------0---------|
G|---2---2------2----|---2---2------2----|-----2------2---2--|-----2------2---2--|
D|-------------------|-------------------|---0---0------0----|---0---0------0----|
A|0------------------|-------------------|-------------------|2------------------|
E|-------------------|2------------------|1------------------|-------------------|

Dm               Dm/B                  Bb
O que não está bem, está mal, pois bem
                      Dm/E               Dm
Se eu quiser ser o bem, do mal, de alguém
                Dm/B              Bb
Talvez o que eu seja queira andar
                Dm/E
Talvez o que eu queira seja amar


[Refrain]

F                     Gm                  C
E|---------0---------|---------1---------|---------0---------|
B|-----1------1---1--|-----3------3---3--|-----3------3---3--|
G|---0---0------0----|---2---2------2----|---0---0------0----|
D|-------------------|0------------------|0------------------|
A|3------------------|-------------------|-------------------|
E|-------------------|-------------------|-------------------|

F            Gm         C
Talvez o meu nome seja teu
              C/F   C/E
Talvez em teu nome seja o meu
 Dm          Gm         C
E no fim do dia quem quiser
                C/F      C/E
Há-de se inventar depois da dor
 Dm            Bb
E no fim do dia quem se der
               Dm
Há-de ser melhor


[Instrumental]

Dm 4x 

Dm/B 4x


[Verse]

          Dm                Dm/B                  Bb                  Dm/E
E|---------0---------|---------0---------|-------------------|-------------------|
B|-----1------1---1--|-----1------1---1--|---------0---------|---------0---------|
G|---2---2------2----|---2---2------2----|-----2------2---2--|-----2------2---2--|
D|-------------------|-------------------|---0---0------0----|---0---0------0----|
A|0------------------|-------------------|-------------------|2------------------|
E|-------------------|2------------------|1------------------|-------------------|

Dm         Dm/B          Bb
Quando não sou livre quero ser
                      Dm/E               Dm
Tudo o que está dentro da razão
                Dm/B              Bb
Quando não estou vivo quero ter
                Dm/E
O que não faz parte da canção


[Refrain]

F                     Gm                  C
E|---------0---------|---------1---------|---------0---------|
B|-----1------1---1--|-----3------3---3--|-----3------3---3--|
G|---0---0------0----|---2---2------2----|---0---0------0----|
D|-------------------|0------------------|0------------------|
A|3------------------|-------------------|-------------------|
E|-------------------|-------------------|-------------------|

F            Gm         C
Talvez o que eu seja vá mudar
              C/F   C/E
Tudo o que não seja em mim perdão
 Dm          Gm         C
Mas o que este dia vem dizer
                C/F      C/E
Tudo o que esta luta quer mostrar
 Dm            Bb
Que no fim do dia quem se der
               Dm
Há de querer ficar


[Bridge]

Dm Dm/B Bb Dm/E


[Refrain]

F                     Gm                  C
E|---------0---------|---------1---------|---------0---------|
B|-----1------1---1--|-----3------3---3--|-----3------3---3--|
G|---0---0------0----|---2---2------2----|---0---0------0----|
D|-------------------|0------------------|0------------------|
A|3------------------|-------------------|-------------------|
E|-------------------|-------------------|-------------------|

F            Gm         C
Por tudo o que eu não soube ser
              C/F   C/E
Dou-te o sangue do meu corpo vão
 Dm          Gm         C
E por tudo o que eu não quis perder
                C/F      C/E
Entre a raiva do meu coração
F            Gm         C
Entre o sol de março a bater
              C/F   C/E
E a curva da desilusão
 Dm          Gm         C
Entre a casa quente do amor
                C/F      C/E
E o jogo ardente da paixao
F            Gm         C
E por tudo o que eu não sei dizer
Dm      Dm
Perdão, perdão

            
            
Suggest correction
Creating personal tab
Creating personal tab
You can edit any tab online and save it as your Personal.

You can edit, replace or remove any tab part or add personal notes – all changes will be seen only by you.

Personal tabs can be accessed anytime from any device, even offline.
Learn more »
Give kudos to tab author, rate the tab!
1 2 3 4 5
comments
print report bad tab
guest
You may want to rate the tab now too:
select rating
Wanna post a correction for this tab? Suggest correction