Oops, an error
Loading. Please wait.

Ragazzo Sfigato chords

22 views 1 this week
no commentswrite comment
1 2 3 4 5
3 more votes to show rating
add to favorites
×
Save as Personal and add changes to this tab that will be seen only by you. Learn more ›
×
You can save this tab as Personal to edit and correct it or add notes. All changes will be seen only by you. Learn more »
launch autoscroll
font size
0
reset
transpose
0
reset
display chords
guitar tuner
edit
Autoscroll
slow
fast
+/-
esc
set tempo
stop
Author
Difficulty
Strumming
There is no strumming pattern for this song yet. and get +5 IQ
[Intro] 

   A               E                 F#m             D
e||---------------|-----------------|---------------|-----------------|
B||---------------|-----------------|---------------|-----------------|
G||-6-----6----6--|-7--6------------|-6-----6----6--|-7--6------------| 
D||----7------7-7-|------7-7/9----7-|----7------7-7-|-------7-7/9-----|
A||---------------|-----------------|---------------|-----------------|
E||---------------|-----------------|---------------|-----------------|

play this a few times


[Fill]

A D E D
A D E D


[Verse]

A          D           E            D          A
  Perdi ciò che ti resta di quella poca dignità
              D          E              D
  Sei uno sfigato e non hai che da scappare via da qua


[Chorus]

A          D              E              D                A
  Da solo vai per la tua via quello che cerchi è la follia
                E         F#m
  Non vuoi una vita come noi?
          D
  Lavoro noia ipocrisia

A      
  Na na na na na
E
  Na na na na na
F#m      
  Na na na na na
D
  Na na na na na

A      
  Na na na na na
E
  Na na na na na
F#m      
  Na na na na na
D
  Na na na na na


Play [Intro] twice


[Verse]

A             D              E            D             A
  Sai bene che con quel che fai uguale a noi non sarai mai
            D        E              D
  Fuggi dalla monotonia di una realtà piena di guai


[Chorus]

A          D              E              D                A
  Da solo vai per la tua via quello che cerchi è la follia
                E         F#m
  Non vuoi una vita come noi?
          D
  Lavoro noia ipocrisia

  Ragazzo sfigato!

A      
  Na na na na na
E
  Na na na na na
F#m      
  Na na na na na
D
  Na na na na na

A      
  Na na na na na
E
  Na na na na na
F#m      
  Na na na na na
D
  Na na na na na


Play [Intro] twice


[Ending]

   A               E              F#m            D
e||--------------|--------------|--------------|--------------|
B||--------------|--------------|--------------|--------------|
G||--------------|--------------|--------------|--------------|
D||-7--------7-6-|-7--------7-6-|-7--------7-6-|-7--------7-9-|
A||--------------|--------------|--------------|--------------|
E||--------------|--------------|--------------|--------------|

   A               E              F#m            D
e||--------------|--------------|--------------|--------------|
B||--------------|--------------|--------------|--------------|
G||--------------|--------------|--------------|--------------|
D||-7--------7-6-|-7--------7-6-|-7--------7-9-|-7------------|
A||--------------|--------------|--------------|--------------|
E||--------------|--------------|--------------|--------------|

            
            
Suggest correction
Creating personal tab
Creating personal tab
You can edit any tab online and save it as your Personal.

You can edit, replace or remove any tab part or add personal notes – all changes will be seen only by you.

Personal tabs can be accessed anytime from any device, even offline.
Learn more »
Give kudos to tab author, rate the tab!
1 2 3 4 5
comments
print report bad tab
guest
You may want to rate the tab now too:
select rating
Wanna post a correction for this tab? Suggest correction