Oops, an error
Loading. Please wait.

Vi Mot Världen chords

version 2
version 2

Whole song

  • Specific, corrected chords true to the key, labele... Show more

Interactive

5,950 views 42 this week
no commentswrite comment
1 2 3 4 5
x 5
add to favorites
×
Save as Personal and add changes to this tab that will be seen only by you. Learn more ›
×
You can save this tab as Personal to edit and correct it or add notes. All changes will be seen only by you. Learn more »
launch autoscroll
font size
0
reset
transpose
0
reset
display chords
guitar tuner
edit
Autoscroll
slow
fast
+/-
esc
set tempo
stop
Author
About this tab version
Specific, corrected chords true to the key, labeled and timed sections, riffs, strumming pattern. Was this info helpful? Yes No
Strumming Is this strumming pattern correct? Yes No
Whole song (suggested) 109 bpm
1
 
&
 
2
 
&
 
3
 
&
 
4
 
&
 
5
 
&
 
6
 
&
 
7
 
&
 
8
 
&
 
Listen
Acoustic part:

e|-6---6---x---2---2---x---4---4---|-x---x---x---x---x---x-x-x---x---|
B|-7---7---x---4---4---x---6---6---|-x---x---x---x---x---x-x-x---x---|
B|-8---8---x---4---4---x---6---6---|-x---x---x---x---x---x-x-x---x---|
D|-8---8---x---4---4---x---6---6---|-x---x---x---x---x---x-x-x---x---|
A|-6---6---x---2---2---x---4---4---|-x---x---x---x---x---x-x-x---x---|
E|---------------------------------|-x---x---x---x---x---x-x-x---x---|

e|-4---4---x---2---2---x---2---2---|-x---x---x---x---x---x-x-x---x---|
B|-6---6---x---2---2---x---4---4---|-x---x---x---x---x---x-x-x---x---|
B|-6---6---x---3---3---x---4---4---|-x---x---x---x---x---x-x-x---x---|
D|-6---6---x---4---4---x---4---4---|-x---x---x---x---x---x-x-x---x---|
A|-4---4---x---4---4---x---2---2---|-x---x---x---x---x---x-x-x---x---|
E|-------------2---2---------------|-x---x---x---x---x---x-x-x---x---|


Verse 3/4, part 1:

e|-6---6---x---2---2---x---4---4---|-x---x---x---x---x---x-x-x---x---|
B|-7---7---x---4---4---x---6---6---|-x---x---x---x---x---x-x-x---x---|
B|-8---8---x---4---4---x---6---6---|-x---x---x---x---x---x-x-x---x---|
D|-8---8---x---4---4---x---6---6---|-x---x---x---x---x---x-x-x---x---|
A|-6---6---x---2---2---x---4---4---|-x---x---x---x---x---x-x-x---x---|
E|---------------------------------|-x---x---x---x---x---x-x-x---x---|

e|-4---4---x---2---9---x---2---2---|-x---x---x---x---x---x-x-x---x---|
B|-6---6---x---11--11--x---4---4---|-x---x---x---x---x---x-x-x---x---|
B|-6---6---x---11--11--x---4---4---|-x---x---x---x---x---x-x-x---x---|
D|-6---6---x---11--11--x---4---4---|-x---x---x---x---x---x-x-x---x---|
A|-4---4---x---9---9---x---2---2---|-x---x---x---x---x---x-x-x---x---|
E|---------------------------------|-x---x---x---x---x---x-x-x---x---|

Verse 4, part 2:

e|-6---6---x---2---2---x---4---4---|-x---x---x---x---x---x-x-x---x---|
B|-7---7---x---4---4---x---6---6---|-x---x---x---x---x---x-x-x---x---|
B|-8---8---x---4---4---x---6---6---|-x---x---x---x---x---x-x-x---x---|
D|-8---8---x---4---4---x---6---6---|-x---x---x---x---x---x-x-x---x---|
A|-6---6---x---2---2---x---4---4---|-x---x---x---x---x---x-x-x---x---|
E|---------------------------------|-x---x---x---x---x---x-x-x---x---|

e|-4---4---x---2---9---x---2---2---|-x---x---x---x-------------------|
B|-6---6---x---11--11--x---4---4---|-x---x---x---x-------------------|
B|-6---6---x---11--11--x---4---4---|-x---x---x---x-------------------|
D|-6---6---x---11--11--x---4---4---|-x---x---x---x-------------------|
A|-4---4---x---9---9---x---2---2---|-x---x---x---x-------------------|
E|---------------------------------|-x---x---x---x-------------------|


ORDER: V1 V2 C V3 V4 C INT B C T


[VERSE 1]
D#m B C#

       n.c.
Kommer alltid att drömma om vi mot världen
C# F# B

        n.c.
Vill ha svart, vill ha vitt, vill ha alla färger
D#m B   C# n.c.
Ah, ah, ah,    alla färger
C#  F#  B  n.c.
Ah, ah, ah,    alla färger


[VERSE 2]
D#m B C#

         n.c.
Sträcker upp mina armar och höjer blicken
C# F# B

       n.c.
Lägger upp mina fötter och lever lite
D#m B   C# n.c.
Ah, ah, ah,    lever lite 
C#  F#  B  n.c.
Ah, ah, ah,    åh, jag lever lite


[CHORUS]
D#m   B         C#
    Ingen annan som kan göra det du gör med mig 
C#    F#        B
    Ingen annan som kan göra det du gör med mig
D#m B                 C#
    Kommer alltid va' vi mot världen, det du gör med mig 
C#  F#                B
    Kommer alltid va' vi mot världen, det du gör med mig


[VERSE 3]
D#m B C#

       n.c.
Där vi stod du och jag för att slippa regnet
C# F# B

        n.c.
Hade väntat på något under hela livet
D#m B   C# n.c.
Ah, ah, ah,    hela livet 
C#  F#  B  n.c.
Ah, ah, ah,    hela livet 


[VERSE 4]
D#m B C#

       n.c.
När du vände dig om stod det redan skrivet 
C# F# B

        n.c.
Hade blivit någon annan än den jag blivit 

D#m B   C# n.c.
Ah, ah, ah,    den jag blivit 
C#  F#  B  n.c.
Ah, ah, ah,    än den jag blivit


[CHORUS]
D#m   B         C#
    Ingen annan som kan göra det du gör med mig 
C#    F#        B
    Ingen annan som kan göra det du gör med mig
D#m B                 C#
    Kommer alltid va' vi mot världen, det du gör med mig 
C#  F#                B
    Kommer alltid va' vi mot världen, det du gör med mig


[CHORUS]
D#m   B         C#
    Ingen annan som kan göra det du gör med mig 
C#    F#        B
    Ingen annan som kan göra det du gör med mig
D#m B                 C#
    Kommer alltid va' vi mot världen, det du gör med mig 
C#  F#                B
    Kommer alltid va' vi mot världen, det du gör med mig


[INTERLUDE]
A#m F# G# | n.c. |
G#  C# F# | n.c. |

A#m F# G# | n.c. |
G#  C# F# | n.c. |


[BRIDGE] (please correct my incomplete attempt at Italian)
D#m        B       C#      n.c.
   Non c'è nessuno che sul fa - re quello
C#        F#        B    n.c.
   quello che sai fare tu


[CHORUS]
D#m   B         C#
    Ingen annan som kan göra det du gör med mig 
C#    F#        B
    Ingen annan som kan göra det du gör med mig
D#m B                 C#
    Kommer alltid va' vi mot världen, det du gör med mig
C#  F#                B
    Kommer alltid va' vi mot världen, det du gör med mig     


[TAG]
D#m B                 C#
    Kommer alltid va' vi mot världen, det du gör med mig
C#  F#                B
    Kommer alltid va' vi mot världen, det du gör med mig

D#m B                 C#
    Kommer alltid va' vi mot världen, det du gör med mig
C#  F#                B                                  B
    Kommer alltid va' vi mot världen, det du gör med mig

            
            
Suggest correction
Creating personal tab
Creating personal tab
You can edit any tab online and save it as your Personal.

You can edit, replace or remove any tab part or add personal notes – all changes will be seen only by you.

Personal tabs can be accessed anytime from any device, even offline.
Learn more »
comments
print report bad tab
guest
You may want to rate the tab now too:
select rating
Wanna post a correction for this tab? Suggest correction