Oops, an error
Loading. Please wait.

Älä Tyri Nyt tab

181 views 6 this week
no commentswrite comment
1 2 3 4 5
3 more votes to show rating
add to favorites
×
Save as Personal and add changes to this tab that will be seen only by you. Learn more ›
×
You can save this tab as Personal to edit and correct it or add notes. All changes will be seen only by you. Learn more »
launch autoscroll
font size
0
reset
how to read this tab
guitar tuner
edit
Autoscroll
slow
fast
+/-
esc
set tempo
stop
Author
Difficulty
[Intro]

Guitar 1
e|--9----------9--9--7----|-5--------5--5--4----1-|-2--------2--4--------4-|-5--------5--5--------|
B|---------10-------------|-------5---------------|-------2-----------5----|-------5-----------5--|
G|-----11-----------------|----6------------------|----2-----------4-------|----6-----------6-----|
D|------------------------|-----------------------|------------------------|----------------------|
A|------------------------|-----------------------|------------------------|----------------------|
E|------------------------|-----------------------|------------------------|----------------------|

Guitar 2 (Played at the same time as Guitar 1 above, tabs are in sync!)
e|------------------------|-----------------------|------------------------|----------------------|
B|------------------------|-----------------------|------------------------|----------------------|
G|----------------------4-|-----------------------|------------------------|----------------------|
D|---------4------------4-|-------7----------6----|-4-----------6--------6-|-7--------7--7--------|
A|---------4------2-------|-------7----------6----|-------5-----------7----|-------7-----------7--|
E|--2---------------------|-5-----------4---------|----5-----------7-------|----9-----------9-----|

Guitar 1
e|--9-----9--9--7-|--5-----5--5--4-------|--2--------2--4--------4-|-5--------5--5--|
B|----------------|--------------------6-|--------2-----------5----|-------5--------|
G|----------------|-----------------4----|-----2-----------4-------|----6-----------|
D|----------------|----------------------|-------------------------|----------------|
A|----------------|----------------------|-------------------------|----------------|
E|----------------|----------------------|-------------------------|----------------|


[Chorus]

Guitar 1
e|--9-----9--9--7-|-5-----5--5--4-------|-2--------2--0--------0-|-0--------0--2-----|
B|----------------|-------------------5-|-------2-----------2----|-------2--------3--|
G|----------------|----------------4----|----2-----------2-------|----2--------------|
D|----------------|---------------------|------------------------|-------------------|
A|----------------|---------------------|------------------------|-------------------|
E|----------------|---------------------|------------------------|-------------------|

e|--9-----9--9--7-|-5-----5--5--4-------|-2--------2--0--------0-|-0--------0--2-----|
B|----------------|-------------------5-|-------2-----------2----|-------2--------3--|
G|----------------|----------------4----|----2-----------2-------|----2--------------|
D|----------------|---------------------|------------------------|-------------------|
A|----------------|---------------------|------------------------|-------------------|
E|----------------|---------------------|------------------------|-------------------|


[Verse]

Guitar 1
e|--9----------9--9--7-|-5--------5--5--4-------|-2--------2--0--------0-|-0--------0--2-----|
B|---------10----------|-------5--------------5-|-------2-----------2----|-------2--------3--|
G|-----11--------------|----6--------------4----|----2-----------2-------|----2--------------|
D|---------------------|------------------------|------------------------|-------------------|
A|---------------------|------------------------|------------------------|-------------------|
E|---------------------|------------------------|------------------------|-------------------|

e|--9----------9--9--7-|-5--------5--5--4-------|-2--------2--0--------0-|-0--------0--2-----|
B|---------10----------|-------5--------------5-|-------2-----------2----|-------2--------3--|
G|-----11--------------|----6--------------4----|----2-----------2-------|----2--------------|
D|---------------------|------------------------|------------------------|-------------------|
A|---------------------|------------------------|------------------------|-------------------|
E|---------------------|------------------------|------------------------|-------------------|


[Chorus]

Guitar 1
e|--9-----9--9--7-|-5-----5--5--4-------|-2--------2--0--------0-|-0--------0--2-----|
B|----------------|-------------------5-|-------2-----------2----|-------2--------3--|
G|----------------|----------------4----|----2-----------2-------|----2--------------|
D|----------------|---------------------|------------------------|-------------------|
A|----------------|---------------------|------------------------|-------------------|
E|----------------|---------------------|------------------------|-------------------|

e|--9-----9--9--7-|-5-----5--5--4-------|-2--------2--0--------0-|-0--------0--2-----|
B|----------------|-------------------5-|-------2-----------2----|-------2--------3--|
G|----------------|----------------4----|----2-----------2-------|----2--------------|
D|----------------|---------------------|------------------------|-------------------|
A|----------------|---------------------|------------------------|-------------------|
E|----------------|---------------------|------------------------|-------------------|


[Refrain]

Guitar 1 (Strum these chords pretty quietly)
E|-----9--------7--------5--------4--------2--------4--------5--------5-----|
B|-----11-------7--------5--------4--------2--------4--------5--------5-----|
G|-----12-------8--------6--------5--------2--------5--------6--------6-----|
D|-----12-------9--------7--------6--------4--------6--------7--------7-----|
A|-----9--------9--------7--------6--------4--------6--------7--------7-----|
E|--------------7--------5--------4--------2--------4--------5--------5-----|

E|-----9--------7--------5--------4--------2--------4--------5--------5-----|
B|-----11-------7--------5--------4--------2--------4--------5--------5-----|
G|-----12-------8--------6--------5--------2--------5--------6--------5-----|
D|-----12-------9--------7--------6--------4--------6--------7--------5-----|
A|-----9--------9--------7--------6--------4--------6--------7--------7-----|
E|--------------7--------5--------4--------2--------4--------5--------5-----|


[Instrumental]

Guitar 1
E|-----9--------7--------5--------4--------2--------4--------5--------5-----|
B|-----11-------7--------5--------4--------2--------4--------5--------5-----|
G|-----12-------8--------6--------5--------2--------5--------6--------5-----|
D|-----12-------9--------7--------6--------4--------6--------7--------5-----|
A|-----9--------9--------7--------6--------4--------6--------7--------7-----|
E|--------------7--------5--------4--------2--------4--------5--------5-----|


[Verse]

Guitar 1
e|--9----------9--9--7-|-5--------5--5--4-------|-2--------2--0--------0-|-0--------0--2-----|
B|---------10----------|-------5--------------5-|-------2-----------2----|-------2--------3--|
G|-----11--------------|----6--------------4----|----2-----------2-------|----2--------------|
D|---------------------|------------------------|------------------------|-------------------|
A|---------------------|------------------------|------------------------|-------------------|
E|---------------------|------------------------|------------------------|-------------------|


[Chorus]

Guitar 1
e|--9-----9--9--7-|-5-----5--5--4-------|-2--------2--0--------0-|-0--------0--2-----|
B|----------------|-------------------5-|-------2-----------2----|-------2--------3--|
G|----------------|----------------4----|----2-----------2-------|----2--------------|
D|----------------|---------------------|------------------------|-------------------|
A|----------------|---------------------|------------------------|-------------------|
E|----------------|---------------------|------------------------|-------------------|

e|--9-----9--9--7-|-5-----5--5--4-------|-2--------2--0--------0-|-0--------0--2-----|
B|----------------|-------------------5-|-------2-----------2----|-------2--------3--|
G|----------------|----------------4----|----2-----------2-------|----2--------------|
D|----------------|---------------------|------------------------|-------------------|
A|----------------|---------------------|------------------------|-------------------|
E|----------------|---------------------|------------------------|-------------------|

e|--9-----9--9--7-|-5-----5--5--4-------|-2--------2--0--------0-|-0--------0--2-----|
B|----------------|-------------------5-|-------2-----------2----|-------2--------3--|
G|----------------|----------------4----|----2-----------2-------|----2--------------|
D|----------------|---------------------|------------------------|-------------------|
A|----------------|---------------------|------------------------|-------------------|
E|----------------|---------------------|------------------------|-------------------|

e|--9-----9--9--7-|-5-----5--5--4-------|-2--------2--0--------0-|-0--------0--2-----|
B|----------------|-------------------5-|-------2-----------2----|-------2--------3--|
G|----------------|----------------4----|----2-----------2-------|----2--------------|
D|----------------|---------------------|------------------------|-------------------|
A|----------------|---------------------|------------------------|-------------------|
E|----------------|---------------------|------------------------|-------------------|


[Refrain]

Guitar 1
e|--9-----9--9--7-|-5-----5--5--4-------|-2--------2--0--------0-|-0--------0--2-----|
B|----------------|-------------------5-|-------2-----------2----|-------2--------3--|
G|----------------|----------------4----|----2-----------2-------|----2--------------|
D|----------------|---------------------|------------------------|-------------------|
A|----------------|---------------------|------------------------|-------------------|
E|----------------|---------------------|------------------------|-------------------|

e|--9-----9--9--7-|-5-----5--5--4-------|-2--------2--0--------0-|-0--------0--2-----|
B|----------------|-------------------5-|-------2-----------2----|-------2--------3--|
G|----------------|----------------4----|----2-----------2-------|----2--------------|
D|----------------|---------------------|------------------------|-------------------|
A|----------------|---------------------|------------------------|-------------------|
E|----------------|---------------------|------------------------|-------------------|


[Outro]

Guitar 1
e|--9----------9--9--7-|-5--------5--5--4-------|-2--------2--0--------0-|-0--------0--2-----|
B|---------10----------|-------5--------------5-|-------2-----------2----|-------2--------3--|
G|-----11--------------|----6--------------4----|----2-----------2-------|----2--------------|
D|---------------------|------------------------|------------------------|-------------------|
A|---------------------|------------------------|------------------------|-------------------|
E|---------------------|------------------------|------------------------|-------------------|

e|--9----------9--9--7-|-5--------5--5--4-------|-2--------2--0--------0-|-0--------0--2-----1--2|
B|---------10----------|-------5--------------5-|-------2-----------2----|-------2--------3------|
G|-----11--------------|----6--------------4----|----2-----------2-------|----2------------------|
D|---------------------|------------------------|------------------------|-----------------------|
A|---------------------|------------------------|------------------------|-----------------------|
E|---------------------|------------------------|------------------------|-----------------------|

            
            
Suggest correction
Creating personal tab
Creating personal tab
You can edit any tab online and save it as your Personal.

You can edit, replace or remove any tab part or add personal notes – all changes will be seen only by you.

Personal tabs can be accessed anytime from any device, even offline.
Learn more »
Give kudos to tab author, rate the tab!
1 2 3 4 5
comments
print report bad tab
guest
You may want to rate the tab now too:
select rating
Wanna post a correction for this tab? Suggest correction