Oops, an error
Loading. Please wait.

N 43° 33 55​​676 W 72° 45 11​​914 tab

751 views 3 this week
no commentswrite comment
1 2 3 4 5
x 4
add to favorites
×
Save as Personal and add changes to this tab that will be seen only by you. Learn more ›
×
You can save this tab as Personal to edit and correct it or add notes. All changes will be seen only by you. Learn more »
launch autoscroll
font size
0
reset
how to read this tab
guitar tuner
edit
Autoscroll
slow
fast
+/-
esc
set tempo
stop
The Hotelier - N 43° 33' 55​.​676" W 72° 45' 11​.​914"

This is the second interlude on the album, and is just Christian and Ben playing a guitar duet together. Due
to the nature of the track, there are probably some more subtle notes that I've missed. Play around with it.
The notes in parenthesis aren't harmonics or anything, they're just quiet notes.

Tuning: Half-step down

eb|--------------7--------------------------------------------------------------|
Bb|-9-------7-----------------------9(p0)---------------------------4-----------|
Gb|-------------------8--------6-----------------4--------6---------------------| x3
Db|--------------------------------------7--------------------------------------|
Ab|-7-------7----7--------------------------------------------------------------|
Eb|-------------------7--------7----7----5----------------5---------------------|


second guitar comes in after 2 times
eb|-----------------------------------------------------------------------------|
Bb|-9---9---9---9---9---9---9---9---9---9---9---9---9---9---9---9---9---9---9---|
Gb|---9---9---9---9---9---9---9---9---9---9---9---9---9---9---9---9---9---9---9-| x3
Db|-----------------------------------------------------------------------------|
Ab|-----------------------------------------------------------------------------|
Eb|-----------------------------------------------------------------------------|


then the original guitar part changes a bit
eb|------------------7----------------------------------------------0-------------------|
Bb|-9-----------7--------------------------9(p0)--------5--------------------4/2/0------|
Gb|-----------------------8----------6---------------------------6------(6)-------------|
Db|-----6--7-h9--------------6--7-h9-------------7--------------------------------------|
Ab|-7-----------7----7------------------------------------------------------------------|
Eb|-----------------------7----------7-----7-----5---------------5-----5----------------|

eb|------------------7----------------------------------------------0------------------------|
Bb|-9-----------7--------------------------9(p0)--------5----------------(0)-4-------5-------|
Gb|-----------------------8----------6---------------------------6---(6)---------------------|
Db|-----6--7-h9--------------6--7-h9-------------7-------------------------------------------|
Ab|-7-----------7----7---------------------------------------------------------------7-------|
Eb|-----------------------7----------7-----7-----5---------------5---------------------------|







************************************

| x   Dead note
| g   Grace note
| (n) Ghost note
| h   Hammer-on
| p   Pull-off
| r   Release
| >   Accented note
| t   Tapping
| b   Bend
| br  Bend release
| pb  Pre-bend
| pbr Pre-bend release
| /   Slide up
| \   Slide down
| ~   Vibrato
| s   Slap
| P   Pop
| PM  Palm mute
| TR  Trill
| N   Tremolo

************************************

            
            
Suggest correction
Creating personal tab
Creating personal tab
You can edit any tab online and save it as your Personal.

You can edit, replace or remove any tab part or add personal notes – all changes will be seen only by you.

Personal tabs can be accessed anytime from any device, even offline.
Learn more »
comments
print report bad tab
guest
You may want to rate the tab now too:
select rating
Wanna post a correction for this tab? Suggest correction