Oops, an error
Loading. Please wait.

Hand On Heart tab

175 views 6 this week
1 commentread comment
1 2 3 4 5
3 more votes to show rating
add to favorites
×
Save as Personal and add changes to this tab that will be seen only by you. Learn more ›
×
You can save this tab as Personal to edit and correct it or add notes. All changes will be seen only by you. Learn more »
launch autoscroll
font size
0
reset
how to read this tab
guitar tuner
edit
Autoscroll
slow
fast
+/-
esc
set tempo
stop
Author
Difficulty
#----------------------------------PLEASE NOTE---------------------------------#
#This file is the author's own work and represents their interpretation of the #
#song. You may only use this file for private study, scholarship, or research. #
#------------------------------------------------------------------------------#
HAND ON HEART
As recorded by Queensryche
(From the 1990 Album EMPIRE)

Transcribed by CHINOOKALE

Words and Music by Chris DeGarmo, Geoff Tate and Michael Wilton
Arranged by Your Mom


E5
0 2 x x x x
F#5II
2 4 4 x x x
Gb5
2 4 4 x x x
G#5IV
4 6 6 x x x
Ab5
4 6 6 x x x
A5
x 0 2 2 x x
B5
x 2 4 4 x x
C#5IV
x 4 6 6 x x
Db5
x 4 6 6 x x
D5
x 5 7 7 x x
D#5
x 6 8 8 x x
Eb5
x 6 8 8 x x
E5VII
x 7 9 9 x x
F5
x 8 10 x x x
F#5IX
x 9 11 11 x x
B/E
x x 2 4 4 x
F#5IV(type 2)
x x 4 6 x x
C#5XI
x x 11 13 x x
E5II
x x 2 4 5 x
F#5
x x 4 6 7 x
G#5
x x 6 8 9 x
B5IX
x x 9 11 12 x
G#5I
x 6 6 x x x
D#m
x 6 4 x x x
C#5
x x 6 6 x x
F#
x x 11 11 11 x
G#m/C#
x x 11 13 12 x
Em/A
x x 7 9 8 x
D
x x 7 7 7 x
F#m/B
x x 9 11 10 x
E
x x 9 9 9 x

Gtr I (E A D G B E) - 'Distortion 1'
Gtr II (E A D G B E) - 'Distortion 2'
Gtr III (E A D G B E) - 'Lead Gtr'
Gtr IV (E A D G B E) - 'Overdubs'

 Intro
  Q=112
  F5                                      Eb5
 4/4
  Gtr I
   E E E E E E E E     E  E E E E E E E   E E E E E E E E    E  E E E E E E E
|------------------|--------------------|-----------------|-------------------|
|--6-----5-----3-5-|---6------5-----3---|-4-----3-----1-3-|--4------3-----1-3-|
|----5-----5-3-----|------5-----5-3---5-|---3-----3-------|-----3-----3-------|
|------3-----------|--------3-----------|-----1-----1-----|-------1-----1-----|
|------------------|--------------------|-----------------|-------------------|
|------------------|--------------------|-----------------|-------------------|
|
| Gtr II
|  W                  +W                  W                 +W
|------------------|--------------------|-----------------|-------------------|
|------------------|--------------------|-----------------|-------------------|
|------------------|--------------------|-----------------|-------------------|
|-10---------------|-(10)---------------|-8---------------|-(8)---------------|
|--8---------------|--(8)---------------|-6---------------|-(6)---------------|
|------------------|--------------------|-----------------|-------------------|


  F5
   E E E E E E E E     E  E   E     E       E  E E   E
|------------------|-------------------------------------|
|--6-----5-----3-5-|---6------------5------------3-------|
|----5-----5-3-----|------5-----------------5--3-----5---|
|------3-----------|----------3--------------------------|
|------------------|-------------------------------------|
|------------------|-------------------------------------|
|
|                                           ~~~
|  W                  +Q     +S   S S S  a  Q.      +E
|------------------|-------------------------------------|
|------------------|-------------------------------------|
|------------------|-------------------------------------|
|-10---------------|-(10)---(10)-10p9---10s12------(12)\-|
|--8---------------|--(8)----(8)-------------------------|
|------------------|-------------------------------------|


  Eb5               Db5    B5
  E E E E E E E E   E  E E E +H
|-----------------|-----------------||
|-4-----3---------|-2----2-0-(0)----||
|---3-----3---3---|----1------------||
|-----1-----1---1-|-----------------||
|-----------------|-----------------||
|-----------------|-----------------||
|
| W                 Q.     E +H
|-----------------|-----------------||
|-----------------|-----------------||
|-----------------|-----------------||
|-8---------------|-6------4-(4)----||
|-6---------------|-4------2-(2)----||
|-----------------|-----------------||


 Verse - If you know this song, you know the words.
  Ab5                     Gb5
  W          +W           W          +W
|----------|------------|----------|--------|
|-9--------|-(9)--------|-7--------|-(7)----|
|-8--------|-(8)--------|-6--------|-(6)----|
|-6--------|-(6)--------|-4--------|-(4)----|
|----------|------------|----------|--------|
|----------|------------|----------|--------|
|
| W          +W           W          +W
|----------|------------|----------|--------|
|----------|------------|----------|--------|
|----------|------------|----------|--------|
|----------|------------|----------|--------|
|-6--------|-(6)--------|-4--------|-(4)----|
|-4--------|-(4)--------|-2--------|-(2)----|


  Ab5                     Gb5                   E5Gb5
  W          +W           W          +H     E E E E
|----------|------------|----------|-----------------|
|-9--------|-(9)--------|-7--------|-(7)----7-7-5-7--|
|-8--------|-(8)--------|-6--------|-(6)----6-6-4-6--|
|-6--------|-(6)--------|-4--------|-(4)----4-4-2-4--|
|----------|------------|----------|-----------------|
|----------|------------|----------|-----------------|
|
| W          +W           W          +H     E E E E
|----------|------------|----------|-----------------|
|----------|------------|----------|-----------------|
|----------|------------|----------|-----------------|
|----------|------------|----------|-----------------|
|-6--------|-(6)--------|-4--------|-(4)----4-4-2-4--|
|-4--------|-(4)--------|-2--------|-(2)----2-2-0-2--|


  $
  Ab5                          Gb5
             PM  PM|   PM                 PM  PM|   PM
  W          E E E E E E E E   W          E E E E E E E E
|----------|-----------------|----------|------------------|
|-9--------|---9-------------|-7--------|---7-----7--------|
|-8--------|---8-----6---5-6-|-6--------|---6-----6---3-4--|
|-6--------|-6---6-6-6-6-6-6-|-4--------|-4---4-4---4-4-4--|
|----------|-----------------|----------|------------------|
|----------|-----------------|----------|------------------|
|
|            PM  PM|   PM                 PM  PM|   PM
| W          E E E E E E E E   W          E E E E E E E E
|----------|-----------------|----------|------------------|
|----------|-----------------|----------|------------------|
|----------|-----------------|----------|------------------|
|-6--------|---6-----6---6-6-|-4--------|---4-----4---4-4--|
|-6--------|---6-----6---6-6-|-4--------|---4-----4---4-4--|
|-4--------|-4---4-4---4-----|-2--------|-2---2-2---2------|


  Ab5                          Gb5           E5
             PM  PM|   PM
  W          E E E E E E E E   H..       E   E E E E E E E E
|----------|-----------------|-------------|------------------||
|-9--------|---9-------------|-7-----------|------------------||
|-8--------|---8-----6---5-6-|-6-----------|------------------||
|-6--------|-6---6-6-6-6-6-6-|-4-----------|-2-----1----------||
|----------|-----------------|-------------|---2-----2---2----||
|----------|-----------------|-----------0-|-----0-----0---0--||
|
|            PM  PM|   PM
| W          E E E E E E E E   H..       E   E E E E E E E E
|----------|-----------------|-------------|------------------||
|----------|-----------------|-------------|-5-----4----------||
|----------|-----------------|-------------|---4-----4---4----||
|-6--------|---6-----6---6-6-|-4---------2-|-----2-----2---2--||
|-6--------|---6-----6---6-6-|-4-----------|------------------||
|-4--------|-4---4-4---4-----|-2-----------|------------------||


 Pre Chorus
  F#5                           E5  F#5 A5
  W                 +H        E E E E   W
|-----------------|-------------------|-----------------|
|-----------------|-------------------|-----------------|
|-----------------|-------------------|-2---------------|
|-4---------------|-(4)-------4-2-2-4-|-2---------------|
|-4---------------|-(4)-------4-2-2-4-|-0---------------|
|-2---------------|-(2)-------2-0-0-2-|-----------------|
|
| E E E E E E E E    E  E E E E E E E   E E E E E E E E
|-2---2---2---2---|--2----2---2-2-2-2-|-5---5---5---5---|
|-2---2---2---2---|--2----2---2-2-2-2-|-5---5---5---5---|
|-----------------|-------------------|-----------------|
|-----------------|-------------------|-----------------|
|-----------------|-------------------|-----------------|
|-----------------|-------------------|-----------------|


                                           To Coda
                      B5                C#5  E5
  +H        E E E E   W                 H    H
|-------------------|-----------------|----------------||
|-------------------|-----------------|----------------||
|-(2)-------2---2---|-4---------------|-6----9---------||
|-(2)-------2-4-2-4-|-4---------------|-6----9---------||
|-(0)-------0-4---4-|-2---------------|-4----7---------||
|-------------------|-----------------|----------------||
|
|  E  E E E E E E E   E E E E E E E E   H    Q.   +E
|--5----5---5-5-5-5-|-7---7---7---7---|----------------||
|--5----5---5-5-5-5-|-7---7---7---7---|----------------||
|-------------------|-----------------|-6----9----(9)\-||
|-------------------|-----------------|-x----x---------||
|-------------------|-----------------|-4----7----(7)\-||
|-------------------|-----------------|----------------||


 Chorus
  F#5
   E  E  E  E  +Q    E  E   E  E  E  E  E  E  E   E
|-------------------------|-------------------------|
|-------------------------|---------12----12--------|
|-------11-13-(13)--13-11-|------11-13----13-11--11-|
|----11----11-(11)--11-11-|---11----11----11-11--11-|
|-------------------------|-------------------------|
|-------------------------|-------------------------|
|
|  Q     E  E  +Q    Q      E  E  E  E  Q     Q
|-------------------------|-------------------------|
|-------------------------|-------------------------|
|-11-------11-(11)--11----|---11----11-11----11\----|
|-11-------11-(11)--11----|---11----11-11----11\----|
|--9--------9--(9)---9----|----9-----9--9-----9\----|
|-------------------------|-------------------------|


  D5                   E5
  E E E a E Q  E E   E E E a  E  +Q   E E
|------------------|-----------------------|
|-------7h8-8--7-8-|-------9h10-(10)--9-9--|
|-----7-7h9-9--7-9-|-----9-9h11-(11)--9-9--|
|---7---7-7-7--7-7-|---9---9--9--(9)--9-9--|
|------------------|-----------------------|
|------------------|-----------------------|
|
| Q   E   E Q  Q     E E E    E   Q   Q
|------------------|-----------------------|
|------------------|-----------------------|
|-7-------7-7--7---|---9------9---9---9----|
|-7-------7-7--7---|---9------9---9---9----|
|-5-------5-5--5---|---7------7---7---7----|
|------------------|-----------------------|


  F#5
   E  E  E  E  +Q    E  E   E  E E  E  E  E  E   E
|-------------------------|------------------------|
|-------------------------|---12---12----12--------|
|-------11-13-(13)--13-11-|---13---13----13-11--11-|
|----11----11-(11)--11-11-|---11---11----11-11--11-|
|-------------------------|------------------------|
|-------------------------|------------------------|
|
|  Q     E  E  +Q    Q      E  E E  E  Q     Q
|-------------------------|------------------------|
|-------------------------|------------------------|
|-11-------11-(11)--11----|---11---11-11----11\----|
|-11-------11-(11)--11----|---11---11-11----11\----|
|--9--------9--(9)---9----|----9----9--9-----9\----|
|-------------------------|------------------------|


  D5                     E5
  E E E a E +Q   E E   E E E a  E  +Q   E E
|--------------------|------------------------||
|-------7h8-(8)--7-7-|---9---9h10-(10)--9-9\--||
|-----7-7h9-(9)--7-7-|---9---9h11-(11)--9-9\--||
|---7---7-7-(7)--7-7-|---9---9--9--(9)--9-9\--||
|--------------------|------------------------||
|--------------------|------------------------||
|
| Q   E   E  Q   Q     E E E a  E  +Q   Q
|--------------------|------------------------||
|--------------------|-------9h10-(10)--9-----||
|-7-------7--7---7---|---9---9--9--(9)--9-----||
|-7-------7--7---7---|---9---9--9--(9)--9-----||
|-5-------5--5---5---|---7--------------------||
|--------------------|------------------------||


  C#5
                              PM-|
  Q.   E  E  E E E   Q   E E  S  S E E E
|-4----------------|---------------------|
|-5----------5p4---|---------------5p4---|
|-6----6---------6-|-6-----6-----------6-|
|-6----------------|-6---6---------------|
|-4----------------|-4--------4--4-------|
|------------------|---------------------|
|
| Q.   E +E  E E E   Q.    E +E    E E E
|------------------|---------------------|
|------------------|---------------------|
|------------------|---------------------|
|-6----6-(6)-6-4---|-6-----6-(6)---6-4-6-|
|-4----4-(4)-----7-|-4-----4-(4)---------|
|------------------|---------------------|


  A5      B/E     A5    B5
  E E E a E +Q    Q     W          +W
|---------------------|----------|----------------||
|-------2h4-(4)-------|----------|----------------||
|-2---2-2h4-(4)---2---|-4--------|-(4)------------||
|---2---2-2-(2)---2---|-4--------|-(4)------------||
|-----------------0---|-2--------|-(2)------------||
|---------------------|----------|----------------||
|
| Q   E   E +E  Q   E   W          +H.      +Q
|---------------------|----------|----------------||
|---------------------|----------|----------------||
|---------------------|----------|----------------||
|-7---7---6-(6)-4s==2-|-4--------|-(4)------(4)\--||
|---------------------|----------|----------------||
|---------------------|----------|----------------||


 Interlude
  Ab5
  Gtrs I, II
   PM           PM--|   PM------|     PM|      PM---|
   E       E    E   E E E E E   E  E  E  E  E  E  E  E
|-----------------------------|----------------------------|
|----------9----------8-------|----9--------8--------------|
|---------------8-------8---8-|-------8--------8-----8-----|
|--6----------------6-----6---|-6--------6--------6--------|
|-----------------------------|----------------------------|
|-----------------------------|----------------------------|
|
| Gtr III
|               ~~~~~
|  E      +E   +H         Q     E  e  e  e  e  E  E  E
|-----------------------------|---19-18-16-----------------|
|-19b21==(19)-(19)r-----------|------------19-16-----------|
|-----------------------------|------------------16-18b20==|
|-----------------------------|----------------------------|
|-----------------------------|----------------------------|
|-----------------------------|----------------------------|


  Gb5
           PM----|       PM----------|   PM|
    E  E   E      E   E  E   E   E   E E E E E  E        E       E
|----------------------------------|-------------------------------||
|------7--------------6------------|---7-----6---------------------||
|----------6-------------6-------6-|-----6-------------------------||
|---4-------------4----------4-----|-4-----4----4----------------4-||
|----------------------------------|------------4--------4-------4-||
|----------------------------------|---------------------2---------||
|
|                 ~~~~~~~
|                                               |--3--|  |--3--|
|  +Q     +S   S  E  +Q     +E   E   H       E  S  S  S  S  S  S E
|----------------------------------|-------------------------------||
|----------------------------------|-----------12h14p12-11h12p11-7-||
|-(18)r==(18)p16-18-(18)---(18)\---|-------------------------------||
|----------------------------------|-------------------------------||
|----------------------------------|-------------------------------||
|----------------------------------|-------------------------------||


 Verse
  Ab5                     Gb5
  Gtr I
  W          +W           W          +W
|----------|------------|----------|--------------------|
|-9--------|-(9)--------|-7--------|-(7)----------------|
|-8--------|-(8)--------|-6--------|-(6)----------------|
|-6--------|-(6)--------|-4--------|-(4)----------------|
|----------|------------|----------|--------------------|
|----------|------------|----------|--------------------|
|
| Gtr II
| W          +W           W           E  E E E E E E E
|----------|------------|----------|--------------------|
|----------|------------|----------|--------------------|
|----------|------------|----------|--------------------|
|----------|------------|----------|-----4-----3---3-4--|
|-6--------|-(6)--------|-4--------|-------4------------|
|-4--------|-(4)--------|-2--------|--2------2----------|
|
| Gtr III
| W          +W           W           W
|----------|------------|----------|--------------------|
|-9--------|-(9)--------|----------|--------------------|
|----------|------------|----------|--------------------|
|----------|------------|----------|--------------------|
|----------|------------|----------|--------------------|
|----------|------------|----------|--------------------|


                                         D.S. al Coda
  Ab5                     Gb5                      E5Gb5
  Gtr I
  W          +W           W          +H        E E E E
|----------|------------|----------|--------------------||
|-9--------|-(9)--------|-7--------|-(7)-------7-7-5-7--||
|-8--------|-(8)--------|-6--------|-(6)-------6-6-4-6--||
|-6--------|-(6)--------|-4--------|-(4)-------4-4-2-4--||
|----------|------------|----------|--------------------||
|----------|------------|----------|--------------------||
|
| Gtr II
| W          +W           W           E  E E E E E E E
|----------|------------|----------|--------------------||
|----------|------------|----------|--------------------||
|----------|------------|----------|--------------------||
|----------|------------|----------|-----4-----3--------||
|-6--------|-(6)--------|-4--------|-------4-----4-2-4--||
|-4--------|-(4)--------|-2--------|--2------2---2-0-2--||


 Chorus
  $$
  &
  F#5
   E  E  E  E  +Q    E  E   E  E  E  E  E  E  E   E
|-------------------------|-------------------------|
|-------------------------|---------12----12--------|
|-------11-13-(13)--13-11-|------11-13----13-11--11-|
|----11----11-(11)--11-11-|---11----11----11-11--11-|
|-------------------------|-------------------------|
|-------------------------|-------------------------|
|
|  Q     E  E  +Q    Q      E  E  E  E  Q     Q
|-------------------------|-------------------------|
|-------------------------|-------------------------|
|-11-------11-(11)--11----|---11----11-11----11\----|
|-11-------11-(11)--11----|---11----11-11----11\----|
|--9--------9--(9)---9----|----9-----9--9-----9\----|
|-------------------------|-------------------------|


  D5                     E5
  E E E a E +Q   E E   E E E a  E  +Q   E E
|--------------------|-----------------------|
|-------7h8-(8)--7-7-|-------9h10-(10)--9-9--|
|-----7-7h9-(9)--7-7-|-----9-9h11-(11)--9-9--|
|---7---7-7-(7)--7-7-|---9---9--9--(9)--9-9--|
|--------------------|-----------------------|
|--------------------|-----------------------|
|
| Q   E   E  Q   Q     E E E    E   Q   Q
|--------------------|-----------------------|
|--------------------|-----------------------|
|-7-------7--7---7---|---9------9---9---9----|
|-7-------7--7---7---|---9------9---9---9----|
|-5-------5--5---5---|---7------7---7---7----|
|--------------------|-----------------------|


  F#5
   E  E  E  E  +Q    E  E   E  E E  E  E  E  E   E
|-------------------------|------------------------|
|-------------------------|---12---12----12--------|
|-------11-13-(13)--13-11-|---13---13----13-11--11-|
|----11----11-(11)--11-11-|---11---11----11-11--11-|
|-------------------------|------------------------|
|-------------------------|------------------------|
|
|  Q     E  E  +Q    Q      E  E E  E  Q     Q
|-------------------------|------------------------|
|-------------------------|------------------------|
|-11-------11-(11)--11----|---11---11-11----11\----|
|-11-------11-(11)--11----|---11---11-11----11\----|
|--9--------9--(9)---9----|----9----9--9-----9\----|
|-------------------------|------------------------|


     To Dbl. Coda
  D5                     E5
  E E E a E +Q   E E   E E E a  E  +Q   E E
|--------------------|-----------------------|
|-------7h8-(8)--7-7-|---9---9h10-(10)--9-9--|
|-----7-7h9-(9)--7-7-|---9---9h11-(11)--9-9--|
|---7---7-7-(7)--7-7-|---9---9--9--(9)--9-9--|
|--------------------|-----------------------|
|--------------------|-----------------------|
|
| Q   E   E  Q   Q     E E E a  E  +Q   E E
|--------------------|-----------------------|
|--------------------|-------9h10-(10)--9----|
|-7-------7--7---7---|---9---9--9--(9)--9-9--|
|-7-------7--7---7---|---9---9--9--(9)--9-9--|
|-5-------5--5---5---|---7----------------7--|
|--------------------|-----------------------|


  F#5
   E  E  E  E  +Q    E  E   E  E  E  E  E  E  E   E
|-------------------------|-------------------------|
|-------------------------|---------12----12--------|
|-------11-13-(13)--13-11-|------11-13----13-11--11-|
|----11----11-(11)--11-11-|---11----11----11-11--11-|
|-------------------------|-------------------------|
|-------------------------|-------------------------|
|
|  Q     E  E  +Q    Q      E  E  E  E  Q     Q
|-------------------------|-------------------------|
|-------------------------|-------------------------|
|-11-------11-(11)--11----|---11----11-11----11\----|
|-11-------11-(11)--11----|---11----11-11----11\----|
|--9--------9--(9)---9----|----9-----9--9-----9\----|
|-------------------------|-------------------------|


  D5                     E5
  E E E a E +Q   E E   E E E a  E  +Q   E E
|--------------------|-----------------------|
|-------7h8-(8)--7-7-|-------9h10-(10)--9-9--|
|-----7-7h9-(9)--7-7-|-----9-9h11-(11)--9-9--|
|---7---7-7-(7)--7-7-|---9---9--9--(9)--9-9--|
|--------------------|-----------------------|
|--------------------|-----------------------|
|
| Q   E   E  Q   Q     E E E    E   Q   Q
|--------------------|-----------------------|
|--------------------|-----------------------|
|-7-------7--7---7---|---9------9---9---9----|
|-7-------7--7---7---|---9------9---9---9----|
|-5-------5--5---5---|---7------7---7---7----|
|--------------------|-----------------------|


  F#5
   E  E  E  E  +Q    E  E   E  E E  E  E  E  E   E
|-------------------------|------------------------|
|-------------------------|---12---12----12--------|
|-------11-13-(13)--13-11-|---13---13----13-11--11-|
|----11----11-(11)--11-11-|---11---11----11-11--11-|
|-------------------------|------------------------|
|-------------------------|------------------------|
|
|  Q     E  E  +Q    Q      E  E E  E  Q     Q
|-------------------------|------------------------|
|-------------------------|------------------------|
|-11-------11-(11)--11----|---11---11-11----11\----|
|-11-------11-(11)--11----|---11---11-11----11\----|
|--9--------9--(9)---9----|----9----9--9-----9\----|
|-------------------------|------------------------|


  D5                     E5
  E E E a E +Q   E E   E E E a  E  +Q   E E
|--------------------|-----------------------||
|-------7h8-(8)--7-7-|---9---9h10-(10)--9-9--||
|-----7-7h9-(9)--7-7-|---9---9h11-(11)--9-9--||
|---7---7-7-(7)--7-7-|---9---9--9--(9)--9-9--||
|--------------------|-----------------------||
|--------------------|-----------------------||
|
| Q   E   E  Q   Q     E E E a  E  +Q   Q
|--------------------|-----------------------||
|--------------------|-------9h10-(10)--9----||
|-7-------7--7---7---|---9---9--9--(9)--9----||
|-7-------7--7---7---|---9---9--9--(9)--9----||
|-5-------5--5---5---|---7-------------------||
|--------------------|-----------------------||


 Bridge
  C#5                                      A5       B/E    A5     B5
                              PM-|
  Q.   E  E  E E E   Q   E E  S  S E E E   E  E E a E +Q   Q      W
|-4----------------|---------------------|--------------------|--------||
|-5----------5p4---|---------------5p4---|--------2h4-(4)-----|--------||
|-6----6---------6-|-6-----6-----------6-|-2----2-2h4-(4)--2--|---4----||
|-6----------------|-6---6---------------|----2---2-2-(2)--2--|---4----||
|-4----------------|-4--------4--4-------|-----------------0--|---2----||
|------------------|---------------------|--------------------|--------||
|
|                                                                 ~
| Q.   E +E  E E E   Q.    E +E    E E E   Q.       E +Q   Q    a W
|------------------|---------------------|--------------------|--------||
|------------------|---------------------|--------------------|--------||
|-6----6-(6)-------|-6-----6-(6)---------|--------------------|--------||
|-6----6-(6)-6-4---|-6-----6-(6)---6-4-6-|-7--------6-(6)--7--|-7s9----||
|-4----4-(4)-----7-|-4-----4-(4)---------|--------------------|--------||
|------------------|---------------------|--------------------|--------||


 Guitar Solo
  Ab5                                                   Gb5
  Gtrs I, II
   E  E E E E E E E    E  E E E E E       E     E        E  E E E E E E E
|-------------------|---------------------------------|--------------------|
|--9------8-----6-8-|--9------8-----------6-----8-----|--7------6-----4-6--|
|-----8-----8-6-----|-----8-----8-6-------------------|-----6-----6-4------|
|-------6-----------|-------6-------------------------|-------4------------|
|-------------------|---------------------------------|--------------------|
|-------------------|---------------------------------|--------------------|
|
| Gtr III
|                                         |----6----|
|  W                  +H        E T T T T S S S S S S    W
|-------------------|---------------------------------|--------------------|
|-------------------|-----------2-2h4p2p0-------------|--------------------|
|--1----------------|-(1)-----------------3h4p3p1h3p1-|--------------------|
|-------------------|---------------------------------|--4-----------------|
|-------------------|---------------------------------|--------------------|
|-------------------|---------------------------------|--------------------|
|
| Gtr IV
|  W                  +W                                 W
|-[4]---------------|-(4)-----------------------------|-[2]----------------|
|-------------------|---------------------------------|--------------------|
|-------------------|---------------------------------|--------------------|
|-------------------|---------------------------------|--------------------|
|-------------------|---------------------------------|--------------------|
|-------------------|---------------------------------|--------------------|


   E  E E E E     E     E     E
|-----------------------------------|
|--7------6-------------4-----6-----|
|-----6-----6-----4-----------------|
|-------4---------------------------|
|-----------------------------------|
|-----------------------------------|
|
|           |----6----| |----6----|
| +H        S S S S S S S S S S S S
|-----------------------------------|
|-----------0h2p0-------------------|
|-----------------3h4p3-1h3p1-------|
|-(4)-------------------------4p3h4-|
|-----------------------------------|
|-----------------------------------|
|
| +W
|-(2)-------------------------------|
|-----------------------------------|
|-----------------------------------|
|-----------------------------------|
|-----------------------------------|
|-----------------------------------|


  Ab5
   E  E E E E E E E    E  E E E E     E     E     E
|-------------------|-----------------------------------|
|--9------8-----6-8-|--9------8-------------6-----8-----|
|-----8-----8-6-----|-----8-----8-----6-----------------|
|-------6-----------|-------6---------------------------|
|-------------------|-----------------------------------|
|-------------------|-----------------------------------|
|
|                               |----6----| |----6----|
|  W                  +H        S S S S S S S S S S S S
|-------------------|-----------------------------------|
|-------------------|-----------2h4p2-0h2h4-6p5h6-7p6h7-|
|--1----------------|-(1)-------------------------------|
|-------------------|-----------------------------------|
|-------------------|-----------------------------------|
|-------------------|-----------------------------------|
|
|  W                  +W
|-[4]---------------|-(4)-------------------------------|
|-------------------|-----------------------------------|
|-------------------|-----------------------------------|
|-------------------|-----------------------------------|
|-------------------|-----------------------------------|
|-------------------|-----------------------------------|


  B5                       Db5
    Gtrs I, II
                            PM---------------|
     E  E E  E  E E  E E    E     E     E     E     S  S  S  S  S  S  S  S
|------------------------|-------------------------------------------------||
|---12------11-----------|-------------------------------------------------||
|------11------11---11---|-----------------------------------3--------3--4-||
|---------9-------9----9-|--6-----6-----6-----6-----3--4--6-----4--6-------||
|------------------------|--4-----4-----4-----4----------------------------||
|------------------------|-------------------------------------------------||
|
|   Gtr III
|    ~~
| a  W                      S  S  S  S  S  S  S  S  S  S  S  S  S  S  S  S
|------------------------|----------------------------------------11----11-||
|-9s12-------------------|----------------------11----11-14-11-14----14----||
|------------------------|----11----11-13-11-13----13----------------------||
|------------------------|-13----13----------------------------------------||
|------------------------|-------------------------------------------------||
|------------------------|-------------------------------------------------||


  D#5     G#5   D#mG#5     C#5
   Q       E  E  E   E   E  E        +W
|---------------------------------|------------------------------|
|---------------------------------|------------------------------|
|---------------------------------|------------------------------|
|--8-------6-----4---6------6-----|--(6)-------------------------|
|--6-------6-----6---6------4-----|--(4)-------------------------|
|---------------------------------|------------------------------|
|
|                                                             ~~~~
|  Q       E  E  E  +E   E  E        +E   E  E  E  E  +S   S  Q
|-14b16===14-14-14r(14)-11-14b16==|=(14)-14-14-14-14r(14)p11-----|
|---------------------------------|--------------------------14--|
|---------------------------------|------------------------------|
|---------------------------------|------------------------------|
|---------------------------------|------------------------------|
|---------------------------------|------------------------------|


  D#5   G#5         D#m   G#5      B5
    Q    E     E     E     E     E  E
|-----------------------------------------|
|-----------------------------------------|
|-----------------------------------------|
|---8----6-----------4-----6--------4-----|
|---6----6-----------6-----6--------2-----|
|-----------------------------------------|
|
|~~~~~~
|  +Q    S  S  S  S  S  S  S  S  E  E
|-------14p11----11-----------------------|
|-(14)--------14----14-11----11-----------|
|-------------------------13----13-10b11==|
|-----------------------------------------|
|-----------------------------------------|
|-----------------------------------------|


                          F#5C#5
   +Q                      E  E  +H
|------------------------------------------------|
|------------------------------------------------|
|--------------------------6---------------------|
|--(4)---------------------4--6--(6)-------------|
|--(2)------------------------4--(4)-------------|
|------------------------------------------------|
|
|                                              ~~~
|  +S   +S       +S   +S   E  E  +E   E  E  a  E
|------------------------------------------------|
|------------------------------------------------|
|-(10)r(10)b11==(10)r(10)-11-13-(13)-11-13-13s15-|
|------------------------------------------------|
|------------------------------------------------|
|------------------------------------------------|


  D#5   G#5         D#m   G#5         F#5
    Q    E     E     E     E     E     E       +Q.    E      +H
|-------------------------------------------|--------------------------------||
|-------------------------------------------|--------------------------------||
|--------------------------------------6----|--(6)----6------(6)-------------||
|---8----6-----------4-----6-----------4----|--(4)----4------(4)-------------||
|---6----6-----------6-----6----------------|--------------------------------||
|-------------------------------------------|--------------------------------||
|
|~~~~~~
|  +Q    S  S  S  S  S  S  S  S  S  S  E       +Q.    E      +Q    E  +S   S
|----------------------------14----14-16b18-|-(16)---16b18==(16)--16r(16)p14-||
|----------14----14-16p14-16----16----------|--------------------------------||
|-(15)--15----15----------------------------|--------------------------------||
|-------------------------------------------|--------------------------------||
|-------------------------------------------|--------------------------------||
|-------------------------------------------|--------------------------------||


  E5
   E E E E E   E  E  E    E E E E E   E  E  E
|----------------------|----------------------|
|----------------------|----------------------|
|----9-----8-----------|----9-----8-----------|
|------9-------9-----9-|------9-------9-----9-|
|--7-----7--------7----|--7-----7--------7----|
|----------------------|----------------------|
|
|  ~~                     ~~
|  H       E   E  E  E    H       E   E  E  E
|-16-------------------|----------------------|
|----------------12-14-|-11-------------12-14-|
|------------/13-------|------------/13-------|
|----------------------|----------------------|
|----------------------|----------------------|
|----------------------|----------------------|


                                                 C#5
   E      E      E E   E   E  E  E    E  E  E  E  H
|----------------------------------|---------------------------------||
|----------------------------------|---------------------------------||
|---------9------------8-----------|-----9-----6--6------------------||
|----------------9---------9-----9-|--------9-----6------------------||
|--7---------------7----------7----|--7------------------------------||
|----------------------------------|---------------------------------||
|
|                ~~
|                                                 |--3--|  |--3--|
|  E     +S   S  Q    +E   E  E  E    E  E  E  E  E  E  E  E  E  E
|----------------------------------|-12----------16-14-12------------||
|-14b16r(14)p12-14---(14)----12-14-|----16-14-12----------16-14-12---||
|-------------------------13-------|---------------------------------||
|----------------------------------|---------------------------------||
|----------------------------------|---------------------------------||
|----------------------------------|---------------------------------||


  Ab5
   W                E   E  E E  E  E E  E
|---------------|--------------------------|
|---------------|--------------------------|
|---------------|--------------------------|
|--6------------|------[6]-----[5]---------|
|--6------------|----------6-------6---[6]-|
|--4------------|---4--------4-------4-----|
|
|  W               +W
|-14b16=========|=(14)---------------------|
|---------------|--------------------------|
|---------------|--------------------------|
|---------------|--------------------------|
|---------------|--------------------------|
|---------------|--------------------------|


  Gb5
    W             E   E  E E   E   E E  E
|-------------|-----------------------------|
|-------------|-----------------------------|
|-------------|-----------------------------|
|---4---------|------[4]------[3]-----------|
|---4---------|----------4---------4---[4]--|
|---2---------|---2--------2---------2------|
|
|  +W            +H           +H
|-(14)--------|-(14)---------(14)\----------|
|-------------|-----------------------------|
|-------------|-----------------------------|
|-------------|-----------------------------|
|-------------|-----------------------------|
|-------------|-----------------------------|


                                              D.S.S. al Dbl. Coda
  Ab5                                Gb5
  Gtrs I, II
  W          E  E  E E  E  E E  E    H..       E   E E E E E E E E
|----------|-----------------------|-------------|------------------||
|----------|-----------------------|-------------|-5-----4----------||
|----------|-----------------------|-------------|---4-----4---4----||
|-6--------|---[6]-----[5]---------|-4---------2-|-----2-----2---2--||
|-6--------|-------6-------6---[6]-|-4-----------|------------------||
|-4--------|-4-------4-------4-----|-2-----------|------------------||


  &&
  E5                     F#5
  Gtr I
  E E E a  E  +Q   E E    E  E  E  E  +Q    E  E
|----------------------|-------------------------|
|---9---9h10-(10)--9-9-|-------------------------|
|---9---9h11-(11)--9-9-|-------11-13-(13)--13-11-|
|---9---9--9--(9)--9-9-|----11----11-(11)--11-11-|
|----------------------|-------------------------|
|----------------------|-------------------------|
|
| Gtr II
| E E E    E   H          Q     E  E  +Q    Q
|----------------------|-------------------------|
|----------------------|-------------------------|
|---9------9---9-------|-11-------11-(11)--11----|
|---9------9---9-------|-11-------11-(11)--11----|
|---7------7---7-------|--9--------9--(9)---9----|
|----------------------|-------------------------|


                            D5                     E5
  E  E  E  E  E  E  E   E   E E E a E +Q   E E   E E E a  E  +Q   E E
|-------------------------|--------------------|------------------------|
|---------12----12--------|-------7h8-(8)--7-7-|-------9h10-(10)--9-9---|
|------11-13----13-11--11-|-----7-7h9-(9)--7-7-|-----9-9h11-(11)--9-9---|
|---11----11----11-11--11-|---7---7-7-(7)--7-7-|---9---9--9--(9)--9-9---|
|-------------------------|--------------------|------------------------|
|-------------------------|--------------------|------------------------|
|
| E  E  E  E  Q     Q       Q   E   E  Q   Q     E E E    E  +Q   Q
|-------------------------|--------------------|------------------------|
|-------------------------|--------------------|---------10-(10)--9-----|
|---11----11-11----11\----|-7-------7--7---7---|---9------9--(9)--9-----|
|---11----11-11----11\----|-7-------7--7---7---|---9------9--(9)--9-----|
|----9-----9--9-----9\----|-5-------5--5---5---|---7--------------------|
|-------------------------|--------------------|------------------------|


  F#5
   E  E  E  E  +Q    E  E   E  E E  E  E  E  E   E
|-------------------------|------------------------|
|-------------------------|---12---12----12--------|
|-------11-13-(13)--13-11-|---13---13----13-11--11-|
|----11----11-(11)--11-11-|---11---11----11-11--11-|
|-------------------------|------------------------|
|-------------------------|------------------------|
|
|  Q     E  E  +Q    Q      E  E E  E  Q     Q
|-------------------------|------------------------|
|-------------------------|------------------------|
|-11-------11-(11)--11----|---11---11-11----11\----|
|-11-------11-(11)--11----|---11---11-11----11\----|
|--9--------9--(9)---9----|----9----9--9-----9\----|
|-------------------------|------------------------|


  D5                     E5
  E E E a E +Q   E E   E E E a  E  +Q   E E
|--------------------|-----------------------||
|-------7h8-(8)--7-7-|---9-9-9h10-(10)--9-9--||
|-----7-7h9-(9)--7-7-|---9-9-9h11-(11)--9-9--||
|---7---7-7-(7)--7-7-|---9-9-9--9--(9)--9-9--||
|--------------------|-----------------------||
|--------------------|-----------------------||
|
| Q   E   E  Q   Q     E E E    E   H
|--------------------|-----------------------||
|--------------------|-----------------------||
|-7-------7--7---7---|---9------9---9--------||
|-7-------7--7---7---|---9------9---9--------||
|-5-------5--5---5---|---7------7---7--------||
|--------------------|-----------------------||


 Outro
        F#5   C#5            F#           G#m/C#   F#5
  Gtrs I, II
   E     E  E  E     +Q    E  E   E  E  E  E  E  E  E  E
|-------------------------------|----------------------------|
|----------------------------11-|---------12----12-----------|
|----------11-13----(13)--13-11-|------11-13----13-11-11-----|
|-------11----11----(11)--11-11-|---11----11----11-11-11-----|
|-------------------------------|----------------------------|
|-------------------------------|----------------------------|
|
| Gtr III
|  ~~~~~              ~~~~                             ~~~~~~~
|  Q.          E     +H           E  e  e  e  e  e  E  E
|-------------------------------|---17-16-14-----------------|
|-17b19-------17b19-(17)--------|------------17-14-----------|
|-------------------------------|------------------14-16b18==|
|-------------------------------|----------------------------|
|-------------------------------|----------------------------|
|-------------------------------|----------------------------|


       D5               Em/A       D
    E  E   E          a  E  +Q      E  E
|----------------------------------------|
|---------------------7h=8--(8)-----7--7-|
|----------7----------7h=9--(9)-----7--7-|
|------7--------------7--7--(7)-----7--7-|
|----------------------------------------|
|----------------------------------------|
|
|~~~~~~                      ~~~~
|          |---3----|
|  +Q     +S   +S   S    E  +E.  S  E  E
|----------------------------------------|
|----------------------------------------|
|-(16)---(16)r(16)p14---16-(16)-14----14-|
|----------------------------------16----|
|----------------------------------------|
|----------------------------------------|


         E5             F#m/B            E
   E       E        E a  E  +Q            E        E
|----------------------------------------------------|
|---------------------9h10-(10)-----------9--------9-|
|-------------------9-9h11-(11)-----------9--------9-|
|----------9----------9--9--(9)-----------9--------9-|
|----------------------------------------------------|
|----------------------------------------------------|
|
|                        ~~
|                                |--3--|  |--3--|
|  E      +S   +S   E    E  +E   S  S  S  S  S  S  E
|----------------------------------------------------|
|----------------------------------------------------|
|-16b18==(16)r(16)-14---16-(16)-14h16p14-13h14p13----|
|-------------------------------------------------14-|
|----------------------------------------------------|
|----------------------------------------------------|


        F#5   C#5            F#     G#m/C#         F#5
   E     E  E  E     +Q    E  E   E  E  E  E  E  E  E  E
|-------------------------------|----------------------------|
|----------------------------11-|---12----12----12-----------|
|----------11-13----(13)--13-11-|---13----13----13-11-11-----|
|-------11----11----(11)--11-11-|---11----11----11-11-11-----|
|-------------------------------|----------------------------|
|-------------------------------|----------------------------|
|
|                     ~~~~
|  Q.          E     +H           E  e  e  e  e  e  e  E
|-------------------------------|---17-16-14-16-17-19-19b21==|
|-17b19-------17b19-(17)--------|----------------------------|
|-------------------------------|----------------------------|
|-------------------------------|----------------------------|
|-------------------------------|----------------------------|
|-------------------------------|----------------------------|


       D5        Em/A        D
    E    E   E a  E     +Q   E  E
|------------------------------------|
|--------------7h=8-----(8)--7--7----|
|------------7-7h=9-----(9)--7--7----|
|--------7-----7--7-----(7)--7--7----|
|------------------------------------|
|------------------------------------|
|
|                        ~~~~
|  +E   +E   E    E     +Q.     S  S
|-(19)r(19)p17---19b21-(19)----21s22-|
|------------------------------------|
|------------------------------------|
|------------------------------------|
|------------------------------------|
|------------------------------------|


         E        F#m/B         E                  F#5   C#5             F#
   E     E   E  a  E  +Q          E      E    E     E  E  E      +Q    E  E
|------------------------------------------|--------------------------------|
|--------9------9h10-(10)---------9------9-|-----------------------------11-|
|--------9------9h11-(11)---------9------9-|----------11-13-----(13)--13-11-|
|--------9------9--9--(9)---------9------9-|-------11----11-----(11)--11-11-|
|------------------------------------------|--------------------------------|
|------------------------------------------|--------------------------------|
|
|                  ~~                                             ~~~~
|  Q        +E     E  +E   S  S  +S   S  E    Q.          E      +H
|-22pb24r==(22)---22-(22)-22s21-(21)-21s19-|--------------------------------|
|------------------------------------------|-17b19-------17b19==(17)--------|
|------------------------------------------|--------------------------------|
|------------------------------------------|--------------------------------|
|------------------------------------------|--------------------------------|
|------------------------------------------|--------------------------------|


    F#5   G#m/C#   F#5              D5          Em/A       D
  E  E  E  E  E  E  E  E         E  E       E a  E  +Q      E  E
|----------------------------|-----------------------------------|
|---------12----12-----------|----------------7h=8--(8)-----7--7-|
|------11-13----13-11-11-----|--------------7-7h=9--(9)-----7--7-|
|---11----11----11-11-11-----|------7---------7--7--(7)-----7--7-|
|----------------------------|-----------------------------------|
|----------------------------|-----------------------------------|
|
|                      ~~~~~~~~~~~~~~                ~~~~
| E  e  e  e  e  e  E  E        +E.    +S   E    E  +E   E  E  E
|---17-16-14-----------------|-----------------------------------|
|------------17-14-----------|-----------------------------------|
|------------------14-16b18==|=(16)r==(16)p14---16-(16)-14----14-|
|----------------------------|-----------------------------16----|
|----------------------------|-----------------------------------|
|----------------------------|-----------------------------------|


        E         F#m/B            E
   E      E   E a  E  +Q            E        E
|-----------------------------------------------|
|---------9-----9h10-(10)-----------9--------9--|
|---------9-----9h11-(11)-----------9--------9--|
|---------9-----9--9--(9)-----------9--------9--|
|-----------------------------------------------|
|-----------------------------------------------|
|
|                  ~~
|                          |--3--|  |--3--|
|  E     +E   E    E  +E   S  S  S  S  S  S  E
|-----------------------------------------------|
|-----------------------------------------------|
|-16b18r(16)-14---16-(16)-14h16p14-13h14p13-----|
|-------------------------------------------14--|
|-----------------------------------------------|
|-----------------------------------------------|


        F#5   C#5            F#
   E     E  E  E     +Q    E  E
|-------------------------------|
|----------------------------11-|
|----------11-13----(13)--13-11-|
|-------11----11----(11)--11-11-|
|-------------------------------|
|-------------------------------|
|
|                     ~~~~
|  Q.          E     +H
|-------------------------------|
|-17b19-------17b19-(17)--------|
|-------------------------------|
|-------------------------------|
|-------------------------------|
|-------------------------------|


    G#m/C#         F#5              D5    Em/A        D
  E  E  E  E  E  E  E  E         E  E E a  E     +Q   E E
|----------------------------|----------------------------|
|---12----12----12-----------|----------7h=8-----(8)--7-7-|
|---13----13----13-11-11-----|--------7-7h=9-----(9)--7-7-|
|---11----11----11-11-11-----|------7---7--7-----(7)--7-7-|
|----------------------------|----------------------------|
|----------------------------|----------------------------|
|
|                                                 ~~~~
| E  e  e  e  e  e  e  E        +Q.        E     +H
|---17-16-14-16-17-19-19b21==|=(19)-------19b21-(19)------|
|----------------------------|----------------------------|
|----------------------------|----------------------------|
|----------------------------|----------------------------|
|----------------------------|----------------------------|
|----------------------------|----------------------------|


        E     F#m/B       E           F#5   C#5            F#
   E    E E a  E     +Q   E E    E     E  E  E     +Q    E  E
|-----------------------------|-------------------------------|
|-------9---9h10----(10)--9-9-|----------------------------11-|
|-------9---9h11----(11)--9-9-|----------11-13----(13)--13-11-|
|-------9---9--9-----(9)--9-9-|-------11----11----(11)--11-11-|
|-----------------------------|-------------------------------|
|-----------------------------|-------------------------------|
|
|                     ~~~~                          ~~~~
|  Q.          E     +H          Q.          E     +H
|-22b24-------22b24-(22)------|-------------------------------|
|-----------------------------|-17b19-------17b19-(17)--------|
|-----------------------------|-------------------------------|
|-----------------------------|-------------------------------|
|-----------------------------|-------------------------------|
|-----------------------------|-------------------------------|


          F#5         G#m/C#                  F#5
    E      E     E     E     E        E        E        E
|----------------------------------------------------------------|
|---------------------12-------------12--------------------------|
|---------------11----13-------------13-------11-------11--------|
|---------11----------11-------------11-------11-------11--------|
|----------------------------------------------------------------|
|----------------------------------------------------------------|
|
|                            |------6-------|  |------6-------|
|  +S   S  S  S  S  S  S  S  S  S  S  S  S  S  S  S  S  S  S  S
|------14h17p14----14--------------------------------------------|
|-(17)----------17----17-14-17p14----14--------------------------|
|---------------------------------16----16p14-16p14----14h16p14--|
|---------------------------------------------------16-----------|
|----------------------------------------------------------------|
|----------------------------------------------------------------|


        D5           Em/A     D
   E      E      E a  E  +Q   E  E
|-------------------------------------|
|------------------7h=8--(8)--7--7----|
|----------------7-7h=9--(9)--7--7----|
|---------7--------7--7--(7)--7--7----|
|-------------------------------------|
|-------------------------------------|
|
|                         ~~~~
|  E     +S   S  E    E  +Q.     S  S
|-------------------------------------|
|-------------------------------------|
|-16b18r(16)p14------14-(14)----------|
|---------------16--------------16-16-|
|-------------------------------------|
|-------------------------------------|


           E5               F#m/B               E
   E        E        E    a  E     +Q            E  E
|---------------------------------------------------------|
|-------------------------9h10----(10)-----------9--9-----|
|--------------------9----9h11----(11)-----------9--9-----|
|-----------9-------------9--9-----(9)-----------9--9-----|
|---------------------------------------------------------|
|---------------------------------------------------------|
|
|                                                ~~~
|  |------6-------|                     |--3--|
|  S  S  S  S  S  S  S  S    S  S   E   S  S  S  E.    S
|---------------------------------------------------------|
|---------------------------------------------------------|
|-14h16p14-13h14p13----13--------------13-----------------|
|-------------------16------16p14--16-----16p14-16----14--|
|---------------------------------------------------------|
|---------------------------------------------------------|


     F#5               C#5                                  F#
   E  E        E        E        +Q                 E        E
|--------------------------------------------------------------------|
|-----------------------------------------------------------11-------|
|-------------11-------13-------(13)---------------13-------11-------|
|----11----------------11-------(11)---------------11-------11-------|
|--------------------------------------------------------------------|
|--------------------------------------------------------------------|
|
|     |--3--|  |------6-------|   |------6-------|  |------6-------|
|  E  S  S  S  S  S  S  S  S  S   S  S  S  S  S  S  S  S  S  S  S  S
|-----------------------------------------------------------12h14p12-|
|-----------------------------------------12h14h15-14h15h17----------|
|----14----14-16p14h16-14----14--14h16h19----------------------------|
|-16----16----------------16-----------------------------------------|
|--------------------------------------------------------------------|
|--------------------------------------------------------------------|


           G#m/C#                     F#5
   E        E        E  E  E        E   E   E
|----------------------------------------------------|
|----------12----------12----------12----------------|
|----------13----------13----------13--11--11--------|
|----------11----------11----------11--11--11--------|
|----------------------------------------------------|
|----------------------------------------------------|
|
|                    ~~             ~~
|  |------6-------|        |--3--|          |--3--|
|  S  S  S  S  S  S  Q     S  S  S  E  +E   S  S  S
|-14h17p14----14----------14----14---------14----14--|
|----------17----17-17-------17----17-(17)----17-----|
|----------------------------------------------------|
|----------------------------------------------------|
|----------------------------------------------------|
|----------------------------------------------------|


      D5           Em/A     D             E      F#m/B    E
   E  E        E a  E  +Q    E  E    E    E  E a  E  +Q    E  E
|---------------------------------|-----------------------------*|
|----------------7h=8--(8)---7--7-|-------9----9h10-(10)---9--9-*|
|--------------7-7h=9--(9)---7--7-|-------9----9h11-(11)---9--9-*|
|-----7----------7--7--(7)---7--7-|-------9----9--9--(9)---9--9-*|
|---------------------------------|-----------------------------*|
|---------------------------------|-----------------------------*|
|
|                   ~~~~~~~                       ~~~~~~~
|  E.    S     E    E  +Q    E  E    Q       E    E  +Q    E  E
|-14----17b19-17---17-(17)-----14-|-17b19---17---17-(17)-----14-*|
|---------------------------17----|-----------------------17----*|
|---------------------------------|-----------------------------*|
|---------------------------------|-----------------------------*|
|---------------------------------|-----------------------------*|
|---------------------------------|-----------------------------*|


Duration Legend - I remember now....
---------------
W - whole; H - half; Q - quarter; E - 8th; S - 16th; T - 32nd; X - 64th; a - acciaccatura
+ - note tied to previous; . - note dotted; .. - note double dotted
Uncapitalized letters represent notes that are staccato (1/2 duration)
Irregular groupings are notated above the duration line
Duration letters will always appear directly above the note/fret number it represents the
duration for.  Duration letters with no fret number below them represent rests.  Multi-
bar rests are notated in the form Wxn, where n is the number of bars to rest for.  Low
melody durations appear below the staff

Tablature Legend - Anybody Listening?
----------------
 h   - hammer-on
 p   - pull-off
 b   - bend
 pb  - pre-bend
 r   - bend release (if no number after the r, then release immediately)
 /\  - slide into or out of (from/to "nowhere")
 s   - legato slide
 S   - shift slide
 - natural harmonic
[n]  - artificial harmonic
n(n) - tapped harmonic
 ~   - vibrato
 tr  - trill
 T   - tap
 TP  - trem. picking
 PM  - palm muting
\n/  - tremolo bar dip; n = amount to dip
 \n  - tremolo bar down
 n/  - tremolo bar up
/n\  - tremolo bar inverted dip
 =   - hold bend; also acts as connecting device for hammers/pulls
 <> - volume swell (louder/softer)
 x   - on rhythm slash represents muted slash
 o   - on rhythm slash represents single note slash

Misc Legend - Della Brown sees it all the time.
-----------
 |  - bar
||  - double bar
||o - repeat start
o|| - repeat end
*|  - double bar (ending)
 :  - bar (freetime)
 $  - Segno
 &  - Coda
Tempo markers -  = BPM(8/16=s8/s16), where s8 = swing 8ths, s16 = swing 16ths


            
            
Suggest correction
Creating personal tab
Creating personal tab
You can edit any tab online and save it as your Personal.

You can edit, replace or remove any tab part or add personal notes – all changes will be seen only by you.

Personal tabs can be accessed anytime from any device, even offline.
Learn more »
Give kudos to tab author, rate the tab!
1 2 3 4 5
comments
print report bad tab
1 comment total.
0 reply
dennis3548 31 Apr 25, 2017 12:30 PM

👍

guest
You may want to rate the tab now too:
select rating
Wanna post a correction for this tab? Suggest correction