Oops, an error
Loading. Please wait.

Põhjakonn tab

64 views 1 this week
no commentswrite comment
1 2 3 4 5
3 more votes to show rating
add to favorites
×
Save as Personal and add changes to this tab that will be seen only by you. Learn more ›
×
You can save this tab as Personal to edit and correct it or add notes. All changes will be seen only by you. Learn more »
launch autoscroll
font size
0
reset
how to read this tab
guitar tuner
edit
Autoscroll
slow
fast
+/-
esc
set tempo
stop
[Intro]

  Guitar I (distorted)
e|-3-3--0--5-5-|-3-3--0--5-5--|-3-3--0--5-5-|---------------|
B|-3-3--0--5-5-|-3-3--0--5-5--|-3-3--0--5-5-|-7--7--7-------|
G|-0-0--6--6-6-|-0-0--6--6-6--|-0-0--6--6-6-|-7--7--7---8-8-|
D|-2-2--7--7-7-|-2-2--7--7-7--|-2-2--7--7-7-|-7--7--7---9-9-|
A|-2-2--0--x-x-|-2-2--0--x-x--|-2-2--0--x-x-|-5--5--5---9-9-|
E|-0-0-----5-5-|-0-0-----5-5--|-0-0-----5-5-|-----------7-7-|

 |Guitar II (Clean)
e|-3-3--0--5-5-|-3-3--5--5-5--|-3-3--0--5-5-|---------------|
B|-3-3--0--5-5-|-3-3--5--5-5--|-3-3--0--5-5-|-7--7-7-7------|
G|-0-0--6--6-6-|-0-0--6--6-6--|-0-0--6--6-6-|-7--7-7-7--8-8-|
D|-2-2--7--7-7-|-2-2--7--7-7--|-2-2--7--7-7-|-7--7-7-7--9-9-|
A|-2-2--0--x-x-|-2-2--0--x-x--|-2-2--0--x-x-|-5--5-5-5--9-9-|
E|-0-0-----5-5-|-0-0-----5-5--|-0-0-----5-5-|-----------7-7-|

  Guitar I 
e|-3-3--0--5-5-|-3-3--0--5-5--------|-3-3--0--5-5-|-----------------|-----------------|
B|-3-3--0--5-5-|-3-3--0--5-5--------|-3-3--0--5-5-|-7---7---7---7---|-7---7-------7---|
G|-0-0--6--6-6-|-0-0--6--6-6b7r6p0--|-0-0--6--6-6-|-7---7---7---7---|-4---4-------4---|
D|-2-2--7--7-7-|-2-2--7--7-7--------|-2-2--7--7-7-|-7---7---7---7---|-7---7-------7---|
A|-2-2--0--x-x-|-2-2--0--x-x--------|-2-2--0--x-x-|-5---5---5---5---|-6---6-------6---|
E|-0-0-----5-5-|-0-0-----5-5--------|-0-0-----5-5-|-----------------|-----------------|

 |Guitar II 
e|-3-3--0--5-5-|-3-3--5--5-5--------|-3-3--0--5-5-|-----------------|-----------------|
B|-3-3--0--5-5-|-3-3--5--5-5--------|-3-3--0--5-5-|-7--7--7-7-7-7-7-|-7--7--7-7-7-7-7-|
G|-0-0--6--6-6-|-0-0--6--6-6--------|-0-0--6--6-6-|-7--7--7-7-7-7-7-|-4--4--4-4-4-4-4-|
D|-2-2--7--7-7-|-2-2--7--7-7--------|-2-2--7--7-7-|-7--7--7-7-7-7-7-|-7--7--7-7-7-7-7-|
A|-2-2--0--x-x-|-2-2--0--x-x--------|-2-2--0--x-x-|-5--5--5-5-5-5-5-|-6--6--6-6-6-6-6-|
E|-0-0-----5-5-|-0-0-----5-5--------|-0-0-----5-5-|-----------------|-----------------|
 

[Verse]

  Guitar I
e|------0----------0------|----0--------0-|
B|------3----------2------|----0--------0-|
G|------4----------4------|----4--------4-| X3
D|------------------------|---------------|
A|------------------------|---------------|
E|------------------------|---------------|

 |Guitar II
e|-0-0--0-0-0--0-0--0-0-0-|-0--0-0-0-0-0-0-|
B|-3-3--3-3-3--0-0--0-0-0-|-0--0-0-0-0-0-0-|
G|-4-4--4-4-4--6-6--6-6-6-|-4--4-4-4-4-4-4-| X3
D|-4-4--4-4-4--7-7--7-7-7-|-2--2-2-2-2-2-2-|
A|-2-2--2-2-2--7-7--7-7-7-|----------------|
E|-------------5-5--5-5-5-|----------------|

  Guitar I
e|----0-------0-|----0-------0-|
B|----5-------5-|----3-------3-|
G|----3-------3-|----2-------2-|
D|--------------|--------------|
A|--------------|--------------|
E|--------------|--------------|

 |Guitar II
e|-0--0-0-0-0-0-|-0--0-0-0-0-0-|
B|-3--3-3-3-3-3-|-2--2-2-2-2-2-|
G|--------------|-3--3-3-3-3-3-|
D|-4--4-4-4-4-4-|--------------|
A|--------------|--------------|
E|--------------|-2--2-2-2-2-2-|

  Guitar I
e|------0----------0------|----0--------0-|
B|------3----------2------|----0--------0-|
G|------4----------4------|----4--------4-| X3
D|------------------------|---------------|
A|------------------------|---------------|
E|------------------------|---------------|

 |Guitar II
e|-0-0--0-0-0--0-0--0-0-0-|-0--0-0-0-0-0-0-|
B|-3-3--3-3-3--0-0--0-0-0-|-0--0-0-0-0-0-0-|
G|-4-4--4-4-4--6-6--6-6-6-|-4--4-4-4-4-4-4-| X3
D|-4-4--4-4-4--7-7--7-7-7-|-2--2-2-2-2-2-2-|
A|-2-2--2-2-2--7-7--7-7-7-|----------------|
E|-------------5-5--5-5-5-|----------------|

 Guitar I
e|----0-------0-|----0-------0-|
B|----5-------5-|----3-------3-|
G|----3-------3-|----2-------2-|
D|--------------|--------------|
A|--------------|--------------|
E|--------------|--------------|

 |Guitar II
e|-0--0-0-0-0-0-|-0--0-0-0-0-0-|
B|-3--3-3-3-3-3-|-2--2-2-2-2-2-|
G|--------------|-3--3-3-3-3-3-|
D|-4--4-4-4-4-4-|--------------|
A|--------------|--------------|
E|--------------|-2--2-2-2-2-2-|


[Chorus]

Guitar I 
e|-3-3--0--5-5-|-3-3--0--5-5--|-3-3--0--5-5-|---------------|
B|-3-3--0--5-5-|-3-3--0--5-5--|-3-3--0--5-5-|-7--7--7-------|
G|-0-0--6--6-6-|-0-0--6--6-6--|-0-0--6--6-6-|-7--7--7---8-8-|
D|-2-2--7--7-7-|-2-2--7--7-7--|-2-2--7--7-7-|-7--7--7---9-9-|
A|-2-2--0--x-x-|-2-2--0--x-x--|-2-2--0--x-x-|-5--5--5---9-9-|
E|-0-0-----5-5-|-0-0-----5-5--|-0-0-----5-5-|-----------7-7-|

 |Guitar II
e|-3-3--0--5-5-|-3-3--5--5-5--|-3-3--0--5-5-|---------------|
B|-3-3--0--5-5-|-3-3--5--5-5--|-3-3--0--5-5-|-7--7-7-7------|
G|-0-0--6--6-6-|-0-0--6--6-6--|-0-0--6--6-6-|-7--7-7-7--8-8-|
D|-2-2--7--7-7-|-2-2--7--7-7--|-2-2--7--7-7-|-7--7-7-7--9-9-|
A|-2-2--0--x-x-|-2-2--0--x-x--|-2-2--0--x-x-|-5--5-5-5--9-9-|
E|-0-0-----5-5-|-0-0-----5-5--|-0-0-----5-5-|-----------7-7-|

  Guitar I 
e|-3-3--0--5-5-|-3-3--0--5-5--------|-3-3--0--5-5-|-----------------|-----------------|
B|-3-3--0--5-5-|-3-3--0--5-5--------|-3-3--0--5-5-|-7---7---7---7---|-7---7-------7---|
G|-0-0--6--6-6-|-0-0--6--6-6b7r6p0--|-0-0--6--6-6-|-7---7---7---7---|-4---4-------4---|
D|-2-2--7--7-7-|-2-2--7--7-7--------|-2-2--7--7-7-|-7---7---7---7---|-7---7-------7---|
A|-2-2--0--x-x-|-2-2--0--x-x--------|-2-2--0--x-x-|-5---5---5---5---|-6---6-------6---|
E|-0-0-----5-5-|-0-0-----5-5--------|-0-0-----5-5-|-----------------|-----------------|

 |Guitar II 
e|-3-3--0--5-5-|-3-3--5--5-5--------|-3-3--0--5-5-|-----------------|-----------------|
B|-3-3--0--5-5-|-3-3--5--5-5--------|-3-3--0--5-5-|-7--7--7-7-7-7-7-|-7--7--7-7-7-7-7-|
G|-0-0--6--6-6-|-0-0--6--6-6--------|-0-0--6--6-6-|-7--7--7-7-7-7-7-|-4--4--4-4-4-4-4-|
D|-2-2--7--7-7-|-2-2--7--7-7--------|-2-2--7--7-7-|-7--7--7-7-7-7-7-|-7--7--7-7-7-7-7-|
A|-2-2--0--x-x-|-2-2--0--x-x--------|-2-2--0--x-x-|-5--5--5-5-5-5-5-|-6--6--6-6-6-6-6-|
E|-0-0-----5-5-|-0-0-----5-5--------|-0-0-----5-5-|-----------------|-----------------|


[Verse]

Guitar I
e|------0----------0------|----0--------0-|
B|------3----------2------|----0--------0-|
G|------4----------4------|----4--------4-| X3
D|------------------------|---------------|
A|------------------------|---------------|
E|------------------------|---------------|

 |Guitar II
e|-0-0--0-0-0--0-0--0-0-0-|-0--0-0-0-0-0-0-|
B|-3-3--3-3-3--0-0--0-0-0-|-0--0-0-0-0-0-0-|
G|-4-4--4-4-4--6-6--6-6-6-|-4--4-4-4-4-4-4-| X3
D|-4-4--4-4-4--7-7--7-7-7-|-2--2-2-2-2-2-2-|
A|-2-2--2-2-2--7-7--7-7-7-|----------------|
E|-------------5-5--5-5-5-|----------------|

  Guitar I
e|----0-------0-|----0-------0-|
B|----5-------5-|----3-------3-|
G|----3-------3-|----2-------2-|
D|--------------|--------------|
A|--------------|--------------|
E|--------------|--------------|

 |Guitar II
e|-0--0-0-0-0-0-|-0--0-0-0-0-0-|
B|-3--3-3-3-3-3-|-2--2-2-2-2-2-|
G|--------------|-3--3-3-3-3-3-|
D|-4--4-4-4-4-4-|--------------|
A|--------------|--------------|
E|--------------|-2--2-2-2-2-2-|

  Guitar I
e|------0----------0------|----0--------0-|
B|------3----------2------|----0--------0-|
G|------4----------4------|----4--------4-| X3
D|------------------------|---------------|
A|------------------------|---------------|
E|------------------------|---------------|

 |Guitar II
e|-0-0--0-0-0--0-0--0-0-0-|-0--0-0-0-0-0-0-|
B|-3-3--3-3-3--0-0--0-0-0-|-0--0-0-0-0-0-0-|
G|-4-4--4-4-4--6-6--6-6-6-|-4--4-4-4-4-4-4-| X3
D|-4-4--4-4-4--7-7--7-7-7-|-2--2-2-2-2-2-2-|
A|-2-2--2-2-2--7-7--7-7-7-|----------------|
E|-------------5-5--5-5-5-|----------------|

  Guitar I
e|----0-------0-|----0-------0-|
B|----5-------5-|----3-------3-|
G|----3-------3-|----2-------2-|
D|--------------|--------------|
A|--------------|--------------|
E|--------------|--------------|

 |Guitar II
e|-0--0-0-0-0-0-|-0--0-0-0-0-0-|
B|-3--3-3-3-3-3-|-2--2-2-2-2-2-|
G|--------------|-3--3-3-3-3-3-|
D|-4--4-4-4-4-4-|--------------|
A|--------------|--------------|
E|--------------|-2--2-2-2-2-2-|


[Chorus]

  Guitar I 
e|-3-3--0--5-5-|-3-3--0--5-5--|-3-3--0--5-5-|---------------|
B|-3-3--0--5-5-|-3-3--0--5-5--|-3-3--0--5-5-|-7--7--7-------|
G|-0-0--6--6-6-|-0-0--6--6-6--|-0-0--6--6-6-|-7--7--7---8-8-|
D|-2-2--7--7-7-|-2-2--7--7-7--|-2-2--7--7-7-|-7--7--7---9-9-|
A|-2-2--0--x-x-|-2-2--0--x-x--|-2-2--0--x-x-|-5--5--5---9-9-|
E|-0-0-----5-5-|-0-0-----5-5--|-0-0-----5-5-|-----------7-7-|

 |Guitar II
e|-3-3--0--5-5-|-3-3--5--5-5--|-3-3--0--5-5-|---------------|
B|-3-3--0--5-5-|-3-3--5--5-5--|-3-3--0--5-5-|-7--7-7-7------|
G|-0-0--6--6-6-|-0-0--6--6-6--|-0-0--6--6-6-|-7--7-7-7--8-8-|
D|-2-2--7--7-7-|-2-2--7--7-7--|-2-2--7--7-7-|-7--7-7-7--9-9-|
A|-2-2--0--x-x-|-2-2--0--x-x--|-2-2--0--x-x-|-5--5-5-5--9-9-|
E|-0-0-----5-5-|-0-0-----5-5--|-0-0-----5-5-|-----------7-7-|

  Guitar I 
e|-3-3--0--5-5-|-3-3--0--5-5--------|-3-3--0--5-5-|-----------------|-----------------|
B|-3-3--0--5-5-|-3-3--0--5-5--------|-3-3--0--5-5-|-7---7---7---7---|-7---7-------7---|
G|-0-0--6--6-6-|-0-0--6--6-6b7r6p0--|-0-0--6--6-6-|-7---7---7---7---|-4---4-------4---|
D|-2-2--7--7-7-|-2-2--7--7-7--------|-2-2--7--7-7-|-7---7---7---7---|-7---7-------7---|
A|-2-2--0--x-x-|-2-2--0--x-x--------|-2-2--0--x-x-|-5---5---5---5---|-6---6-------6---|
E|-0-0-----5-5-|-0-0-----5-5--------|-0-0-----5-5-|-----------------|-----------------|

 |Guitar II 
e|-3-3--0--5-5-|-3-3--5--5-5--------|-3-3--0--5-5-|-----------------|-----------------|
B|-3-3--0--5-5-|-3-3--5--5-5--------|-3-3--0--5-5-|-7--7--7-7-7-7-7-|-7--7--7-7-7-7-7-|
G|-0-0--6--6-6-|-0-0--6--6-6--------|-0-0--6--6-6-|-7--7--7-7-7-7-7-|-4--4--4-4-4-4-4-|
D|-2-2--7--7-7-|-2-2--7--7-7--------|-2-2--7--7-7-|-7--7--7-7-7-7-7-|-7--7--7-7-7-7-7-|
A|-2-2--0--x-x-|-2-2--0--x-x--------|-2-2--0--x-x-|-5--5--5-5-5-5-5-|-6--6--6-6-6-6-6-|
E|-0-0-----5-5-|-0-0-----5-5--------|-0-0-----5-5-|-----------------|-----------------|


[Bridge]

   Guitar I
e|-0---------0--------------------|-0---------0--------------------|
B|-0---------0--------------------|-0---------0--------------------|
G|-12--------12-------------------|-12--------12-------------------|
D|-10--------10-------------------|-10--------10-------------------|
A|--------------------------------|--------------------------------|
E|--------------------------------|--------------------------------|

 | Guitar II
e|-0--0--0---0--0--0--0--0--0--0--|-0--0--0---0--0--0--0--0--0--0--|
B|-0--0--0---0--0--0--0--0--0--0--|-0--0--0---0--0--0--0--0--0--0--|
G|-12-12-12--12-12-12-12-12-12-12-|-12-12-12--12-12-12-12-12-12-12-|
D|-10-10-10--10-10-10-10-10-10-10-|-10-10-10--10-10-10-10-10-10-10-|
A|--------------------------------|--------------------------------|
E|--------------------------------|--------------------------------|

   Guitar I
e|-0---------0--------------------|-0---------0--------------------|
B|-0---------0--------------------|-0---------0--------------------|
G|-11--------11-------------------|-11--------11-------------------|
D|-9---------9--------------------|-9---------9--------------------|
A|--------------------------------|--------------------------------|
E|--------------------------------|--------------------------------|

 |Guitar II
e|-0--0--0---0--0--0--0--0--0--0--|-0--0--0---0--0--0--0--0--0--0--|
B|-0--0--0---0--0--0--0--0--0--0--|-0--0--0---0--0--0--0--0--0--0--|
G|-11-11-11--11-11-11-11-11-11-11-|-11-11-11--11-11-11-11-11-11-11-|
D|-9--9--9---9--9--9--9--9--9--9--|-9--9--9---9--9--9--9--9--9--9--|
A|--------------------------------|--------------------------------|
E|--------------------------------|--------------------------------|
 
 *Repeat the bridge section 3 times


[Outro]

  Guitar I 
e|-3-3--0--5-5-|-3-3--0--5-5--|-3-3--0--5-5-|-0--0----------0----|
B|-3-3--0--5-5-|-3-3--0--5-5--|-3-3--0--5-5-|-1--1----------1----| 
G|-0-0--6--6-6-|-0-0--6--6-6--|-0-0--6--6-6-|-2--2----------2----| X4
D|-2-2--7--7-7-|-2-2--7--7-7--|-2-2--7--7-7-|-3--3----------3----|
A|-2-2--0--x-x-|-2-2--0--x-x--|-2-2--0--x-x-|--------------------|
E|-0-0-----5-5-|-0-0-----5-5--|-0-0-----5-5-|--------------------|

 |Guitar II
e|-3-3--0--5-5-|-3-3--5--5-5--|-3-3--0--5-5-|-1--1-1--1-1-1-1-1------|
B|-3-3--0--5-5-|-3-3--5--5-5--|-3-3--0--5-5-|-1--1-1--1-1-1-1-1------| 
G|-0-0--6--6-6-|-0-0--6--6-6--|-0-0--6--6-6-|-2--2-2--2-2-2-2-2------| X4
D|-2-2--7--7-7-|-2-2--7--7-7--|-2-2--7--7-7-|-3--3-3--3-3-3-3-3------|
A|-2-2--0--x-x-|-2-2--0--x-x--|-2-2--0--x-x-|-3--3-3--3-3-3-3-3------|
E|-0-0-----5-5-|-0-0-----5-5--|-0-0-----5-5-|-1--1-1--1-1-1-1-1------|

  
  Guitar I
e|-0---0---0---0----|-0------------|
B|-1---1---1---1----|-1------------|
G|-2---2---2---2----|-2------------|
D|-3---3---3---3----|-3------------|
A|------------------|--------------|
E|------------------|--------------|

 |Guitar II
e|-1--1-1--1-1--1-1-|-1------------|
B|-1--1-1--1-1--1-1-|-1------------|
G|-2--2-2--2-2--2-2-|-2------------|
D|-3--3-3--3-3--3-3-|-3------------|
A|-3--3-3--3-3--3-3-|-3------------|
E|-1--1-1--1-1--1-1-|-1------------|


************************************

| x   Dead note
| p   Pull-off
| r   Release
| b   Bend

************************************

            
            
Suggest correction
Creating personal tab
Creating personal tab
You can edit any tab online and save it as your Personal.

You can edit, replace or remove any tab part or add personal notes – all changes will be seen only by you.

Personal tabs can be accessed anytime from any device, even offline.
Learn more »
Give kudos to tab author, rate the tab!
1 2 3 4 5
comments
print report bad tab
guest
You may want to rate the tab now too:
select rating
Wanna post a correction for this tab? Suggest correction