Oops, an error
Loading. Please wait.

Tell Me chords

19 views 1 this week
no commentswrite comment
1 2 3 4 5
3 more votes to show rating
add to favorites
×
Save as Personal and add changes to this tab that will be seen only by you. Learn more ›
×
You can save this tab as Personal to edit and correct it or add notes. All changes will be seen only by you. Learn more »
launch autoscroll
font size
0
reset
transpose
0
reset
simplify chords
display chords
guitar tuner
edit
Autoscroll
slow
fast
+/-
esc
set tempo
stop
Author
Difficulty
Strumming
There is no strumming pattern for this song yet. and get +5 IQ
Tell me
by Divino Niño


Chords library.
**Please refer to this chord library since this song has special voicings**

B7

E|--------------|
B|--------4-----|
G|-----------2--|
D|-----4--------|
A|--2-----------|
E|--------------|

G7

E|--------------|
B|-----------3--|
G|--------------|
D|--------3-----|
A|-----2--------|
E|--3-----------|


E7

E|--------------|
B|--------6-----|
G|-----------7--|
D|-----6--------|
A|--7-----------|
E|--------------|

Am7

E|--------------|
B|-----------5--|
G|--------5-----|
D|-----5--------|
A|--------------|
E|--5-----------|

D7

E|--------------|
B|--------4-----|
G|-----------5--|
D|-----4--------|
A|--5-----------|
E|--------------|

G9

E|-----------------5--|
B|--------------3-----|
G|-----------4--------|
D|--------3-----------|
A|-----5--------------|
E|--3-----------------|

G#dim7

E|-----7--------|
B|--------6-----|
G|--7-----------|
D|-----------6--|
A|--------------|
E|--------------|

C6

E|--------5--|
B|-----5-----|
G|--5--------|
D|-----------|
A|-----------|
E|-----------|

D6

E|--------7--|
B|-----7-----|
G|--7--------|
D|-----------|
A|-----------|
E|-----------|

D9

E|--------------|
B|-----------5--|
G|--------5-----|
D|-----4--------|
A|--5-----------|
E|--------------|


[Intro]

B7, G7 x3


[Verse]

Am7                  D9
Tell   me   why

Am7                  D9
 we can't ever be on time

G7             Em
if you're ever willing, babe


[Chorus]

Am7               D9
Tell me something new

G7                 Em
Tell me why you're blue

Am7              D9
everything is a'changing

G7            Em
everything is electric babe

Am7              D9
nothing's ever true

G7               F#7               B7
so why just keep pretending to be good


[Instrumental] 

B7, G7


[Bridge]

      E7  Am7
Cause no  one
D7         G9    G#dim7
noooo   one

        C6   D6        G9    G#dim7
will do me  like you do

          C6   D6        G9    G#dim7
will want me like you do
        C6
will do me like you dooo


[Chorus]

Am7               D9
Tell me something new

G7                 Em
Tell me why you're blue

Am7              D9
everything is a'changing

G7            Em
everything is electric babe

Am7              D9
nothing's ever true

G7               F#7               B7
so why just keep pretending to be good


[Outro]

B7, F#7

F#7                   B7
Why don't you be yourself?

 F#7              B7
 unlike everybody else

            
            
Suggest correction
Creating personal tab
Creating personal tab
You can edit any tab online and save it as your Personal.

You can edit, replace or remove any tab part or add personal notes – all changes will be seen only by you.

Personal tabs can be accessed anytime from any device, even offline.
Learn more »
Give kudos to tab author, rate the tab!
1 2 3 4 5
comments
print report bad tab
guest
You may want to rate the tab now too:
select rating
Wanna post a correction for this tab? Suggest correction