Oops, an error
Loading. Please wait.

Älä Droppaa Mun Tunnelmaa chords

17,644 views 87 this week
2 commentsread comments
1 2 3 4 5
x 10
add to favorites
×
Save as Personal and add changes to this tab that will be seen only by you. Learn more ›
×
You can save this tab as Personal to edit and correct it or add notes. All changes will be seen only by you. Learn more »
launch autoscroll
font size
0
reset
transpose
0
reset
display chords
guitar tuner
edit
Autoscroll
slow
fast
+/-
esc
set tempo
stop
Strumming
There is no strumming pattern for this song yet. and get +5 IQ
[Intro]
D  A  Em

[Verse 1]
D                A                 Em
 Mul on vuodessa vaan yksi kesäloma
D             A                  Em
 Satanu siitä puolet jo tosi kiva
D             A                 Em
 Mä oon tehny töitä vaa apinana

 Mul on sotkunen grilli ja takapiha
D                A                  Em
 Ja mä päätän et tää on nyt Costa Rica

[Pre-Chorus]
     D    A        Em
 Sadepilvee en voi pyytää mene pois
          D    A      Em
 Mut yhen tiiän jolta kyllä toivoo vois

[Chorus]
D               A                 Em
 Älä tuu siihen droppaa mun tunnelmaa
D             A            Em
 Mitä eilistä juttua jankuttaa
D             A             Em
 Voitsä vetää suupielet ylöspäin
 D              A
 Laa-la-laa-laa-laa-laa
Em                         D    A
 Älä tuu droppaa mun tunnelmaa-aa-aa-aa
Em
 Älä tuu droppaa mun tunnelmaa

D  A  Em (x2)

[Verse 2]
D                A                Em
 Mul on aurinko, vitsku ja univaje
D                 A                   Em
 Siinä riittää jo himmeinkin valonkaje
D                 A                 Em
 Sul on synkkä ja myrskyinen iso ego

 Mul on ehdotus: tee yksi ekoteko
D              A               Em
 Anna mun olla rauhassa vähä seko

[Pre-Chorus]
     D    A        Em
 Sadepilvee en voi pyytää mene pois
          D    A      Em
 Mut yhen tiiän jolta kyllä toivoo vois

[Chorus]
D               A                 Em
 Älä tuu siihen droppaa mun tunnelmaa
D             A            Em
 Mitä eilistä juttua jankuttaa
D             A             Em
 Voitsä vetää suupielet ylöspäin
 D              A
 Laa-la-laa-laa-laa-laa
Em                         D    A
 Älä tuu droppaa mun tunnelmaa-aa-aa-aa
Em
 Älä tuu droppaa mun tunnelmaa

[Bridge]
 D   A    Em            D    A      Em
 Oon niin ansainnut mun laskevan sykkeen
 D   A    Em           D    A     Em
 Oon vaan järkännyt delfiinikellukkeet

D  A  Em [x2]

[Pre-Chorus]
     D    A        Em
 Sadepilvee en voi pyytää mene pois
          D    A      Em
 Mut yhen tiiän jolta kyllä toivoo vois

[Chorus]
D               A                 Em
 Älä tuu siihen droppaa mun tunnelmaa
D             A            Em
 Mitä eilistä juttua jankuttaa
D             A             Em
 Voitsä vetää suupielet ylöspäin
 D              A
 Laa-la-laa-laa-laa-laa
Em                         D    A
 Älä tuu droppaa mun tunnelmaa-aa-aa-aa
Em                         D    A    Em    D  A
 Älä tuu droppaa mun tunnelmaa aa-aa
Em                         D    A
 Älä tuu droppaa mun tunnelmaa-aa-aa-aa
Em                         D    A
 Älä tuu droppaa mun tunnelmaa aa-aa
Em                         D    A
 Älä tuu droppaa mun tunnelmaa aa-aa

Guitar:
e|-18-15-16-15-------15-------------15-------------------15----------------|
B|-------------18-16----16----16-18----18-15----15-16-18----16-15-16----16-|
G|-------------------------15----------------15----------------------15----|
D|-------------------------------------------------------------------------|
A|-------------------------------------------------------------------------|
E|-------------------------------------------------------------------------|

e|-18-15-16-15-------15-------------15-------------------15----------------|
B|-------------18-16----16----16-18----18-15----15-16-18----16-15-16----16-|
G|-------------------------15----------------15----------------------15----|
D|-------------------------------------------------------------------------|
A|-------------------------------------------------------------------------|
E|-------------------------------------------------------------------------|

e|-18-15-16-15-------|
B|-------------18-16-|
G|-------------------|
D|-------------------|
A|-------------------|
E|-------------------|

            
            
Suggest correction
Creating personal tab
Creating personal tab
You can edit any tab online and save it as your Personal.

You can edit, replace or remove any tab part or add personal notes – all changes will be seen only by you.

Personal tabs can be accessed anytime from any device, even offline.
Learn more »
comments
print report bad tab
2 comments total.
+1 reply
deehoo 10 Jul 19, 2016 10:02 AM

Se mistä ei saa selvää: "Oon vaan järkännyt delfiinikellukkeet" :-)

0 reply
mmmaik 77 Jun 24, 2017 11:56 AM

G duuri kuulostaa mun korvaan paremmalta kuin Em, mutta tämäki nyt kuuntelematta tarkemmin biisiä :D

guest
You may want to rate the tab now too:
select rating
Wanna post a correction for this tab? Suggest correction