Oops, an error
Loading. Please wait.

Rautaketju tab

version 1
version 1

Whole song

Interactive

76 views 1 this week
no commentswrite comment
1 2 3 4 5
3 more votes to show rating
add to favorites
×
Save as Personal and add changes to this tab that will be seen only by you. Learn more ›
×
You can save this tab as Personal to edit and correct it or add notes. All changes will be seen only by you. Learn more »
launch autoscroll
font size
0
reset
how to read this tab
guitar tuner
edit
Autoscroll
slow
fast
+/-
esc
set tempo
stop
This song is the best on their first album in my opinion. Here's a tab of the main riffs.


[Intro]

e|---------------------------------------------------------------------------|
B|---------------------------------------------------------------------------|
G|---------------------------------------------------------------------------|
D|---------------------------------------------------------------------------|
A|---------------------------------------------------------------------------|
D|-00000000------------------------------------------------------------------|
Pm:........


[Main Riff]

e|---------------------------------------------------------------------------|
B|---------------------------------------------------------------------------|
G|---------------------------------------------------------------------------| Play this 2x right after
D|-----1-0--0--0------3-0--0--0------8-7--0--0--0-8-0-7-0-1------------------| the intro part
A|-----1-0--0--0------3-0--0--0------8-7--0--0--0-8-0-7-0-1------------------| 
D|-00001-0--0--0--00003-0--0--0--00008-7--0--0--0-8-0-7-0-1------------------|
Pm:....           ....           ....     


[Chorus Riff]

e|---------------------------------------------------------------------------|
B|---------------------------------------------------------------------------|
G|---------------------------------------------------------------------------| Play this 2x after the
D|-----7-3--3--3-2-3------11-7--7-5-3------8-7--0--0--0-8-0-7-0-1------------| main riff.
A|-----7-3--3--3-2-3------11-7--7-5-3------8-7--0--0--0-8-0-7-0-1------------|
D|-33337-3--3--3-2-3--777711-7--7-5-3--00008-7--0--0--0-8-0-7-0-1------------|
Pm:....               ....             ....


[Verse Riff]

e|---------------------------------------------------------------------------|
B|---------------------------------------------------------------------------|
G|---------------------------------------------------------------------------|
D|--------------------------0--0--0------0--0--0-0-0-------------------------|
A|--------------------------0--0--0------0--0--0-0-0-------------------------|
D|-000000----0000---0000----0--0--0------0--0--0-0-0-------------------------|
Pm:......    ....   ....

e|---------------------------------------------------------------------------|
B|---------------------------------------------------------------------------|
G|---------------------------------------------------------------------------| Play this 4x in the verse.
D|-----1-0--0--0------3-0--0--0------8-7--0--0--0-8-0-7-0-1------------------| 
A|-----1-0--0--0------3-0--0--0------8-7--0--0--0-8-0-7-0-1------------------|
D|-00001-0--0--0--00003-0--0--0--00008-7--0--0--0-8-0-7-0-1------------------|
Pm:....           ....           ....


Here's the song structure:

Intro
Main riff 2x
Chorus riff 2x
Verse riff 4x
Chorus riff 2x
Verse riff 4x
Chorus riff 2x
In the bridge you can mess around with palm muting the lowest D string.
Chorus riff 4x

That's it. Hope the tab helped! :)
Suggest correction
Creating personal tab
Creating personal tab
You can edit any tab online and save it as your Personal.

You can edit, replace or remove any tab part or add personal notes – all changes will be seen only by you.

Personal tabs can be accessed anytime from any device, even offline.
Learn more »
Give kudos to tab author, rate the tab!
1 2 3 4 5
comments
print report bad tab
guest
You may want to rate the tab now too:
select rating
Wanna post a correction for this tab? Suggest correction