Oops, an error
Loading. Please wait.

Μπασταρδοκρατία bass

7 views 1 this week
no commentswrite comment
1 2 3 4 5
2 more votes to show rating
add to favorites
×
Save as Personal and add changes to this tab that will be seen only by you. Learn more ›
×
You can save this tab as Personal to edit and correct it or add notes. All changes will be seen only by you. Learn more »
launch autoscroll
font size
0
reset
guitar tuner
edit
Autoscroll
slow
fast
+/-
esc
set tempo
stop
Author
Hello , this is my first tab so don't hate , just improve 
Couldn't find anywhere the tabs for this song so i just made them 

[Intro]

G|-----------------------------------------------------|
D|-4-4-4-----------------------------------------------|
A|--------2-2-2-2-2-2-2-2-2-2-2-2-2-2-2----------------| [X2]
E|-----------------------------------------------------|
 
G|-----------------------------------------------------|
D|-4-4-4-----------------------------------------------|
A|--------3-3-3-3-3-3-3-3-3-3-3-3-3-3-3----------------| 
E|-----------------------------------------------------|

G|-----------------------------------------------------|
D|-5-5-5-----------------------------------------------|
A|--------3-3-3-3-3-3-3-3-3-3-3-3-3-3-3----------------| 
E|-----------------------------------------------------|

[End of intro ]

G|-----------------------------------------------------|
D|-4-4-4-----------------------------------------------|
A|-------2~--------------------------------------------| 
E|-----------------------------------------------------|

[Riff 2 (Main riff) ] 

G|-----------------------------------------------------|
D|----------------------------4-4-4--------------------|
A|-2-2-2---2-2-2---2-2-2-2-2---------------------------| [X2]
E|-----------------------------------------------------|


G|-----------------------------------------------------|
D|----------------------------5-5-5--------------------|
A|-3-3-3---3-3-3---3-3-3-3-3---------------------------| [X2]
E|-----------------------------------------------------|

[Riff 3 (chorus] 

G|-----------------------------------------------------|
D|-------------------------------7-5-------------------|
A|-2-2-2----------2/7-7-5-5-----------7-5--------------| [X4]
E|--------3-3-3-3-----------5-5------------------------|

Aaaand That's it . just listen to the song and you can match the riffs

************************************

| /  Slide up
| ~  Vibrato

************************************

            
            
Suggest correction
Creating personal tab
Creating personal tab
You can edit any tab online and save it as your Personal.

You can edit, replace or remove any tab part or add personal notes – all changes will be seen only by you.

Personal tabs can be accessed anytime from any device, even offline.
Learn more »
Give kudos to tab author, rate the tab!
1 2 3 4 5
comments
print report bad tab
guest
You may want to rate the tab now too:
select rating
Wanna post a correction for this tab? Suggest correction