Oops, an error
Loading. Please wait.

Vit Som En Snö chords

220 views 1 this week
3 commentsread comments
1 2 3 4 5
x 3
add to favorites
×
Save as Personal and add changes to this tab that will be seen only by you. Learn more ›
×
You can save this tab as Personal to edit and correct it or add notes. All changes will be seen only by you. Learn more »
launch autoscroll
font size
0
reset
transpose
0
reset
simplify chords
display chords
guitar tuner
edit
Autoscroll
slow
fast
+/-
esc
set tempo
stop
Strumming
There is no strumming pattern for this song yet. and get +5 IQ
Video https://www.youtube.com/watch?v=iHoW1nLfZrw

No Capo

[Chords]
   Gmaj7  D4  D5
e|---2-----3---5--------------|-------------------------|
B|---3-----3---3--------------|-------------------------|
G|---0-----2---2--------------|-------------------------|
D|---0-----0---0--------------|-------------------------|
A|---2-----X---x--------------|-------------------------|
E|---3-----X---x--------------|-------------------------|

[Intro]

   G        Gmaj7 C D G        G        Gmaj7 C D G
e|---------3------3-5-7-7---|------3------3-----------|
B|-------3---7--5-----------|----3---7--5----7--3-----|
G|-----4--------------------|--4------------------4---|
D|-5------------------------|-------------------------|
A|--------------------------|-------------------------|
E|--------------------------|-------------------------|
   G        Gmaj7 C D G        C  D   G  
e|---------3------3-5-7-7---|-----2---3--3------------|
B|-------3---7--5-----------|--5----------------------|
G|-----4--------------------|-------------------------|
D|-5------------------------|-------------------------|
A|--------------------------|-------------------------|
E|--------------------------|-------------------------|


                                                        
[Verse] 
G                   C                                  
Jag hör din röst nu, på telefon
Am7                      D   C  D                                                   
Du undrar när jag kommer hem säger:
G                          C                            
- Det väntas snö ikväll och det blir kallt
Am7                         D  C  D                              
- Så ta din tid vi ses ju sen
                                                       
                                                       
[Chorus] 
G                                                       
Älskling, nu skymmer dagen här
C                                                       
Och fast du är ensam där
Am7                  D       D4 D5 D                         
Det finns en eld som brinner
G                                                       
Jag kommer sent inatt
C                                                       
Och ändå vet du att min kärlek
Am7                   D  C          G        
Har du för alltid den är vit som en snö


   G        Gmaj7 C D G        G        Gmaj7 C D G
e|---------3------3-5-7-7---|------3------3-----------|
B|-------3---7--5-----------|----3---7--5----7--3-----|
G|-----4--------------------|--4------------------4---|
D|-5------------------------|-------------------------|
A|--------------------------|-------------------------|
E|--------------------------|-------------------------|
   G        Gmaj7 C D G         C     D    G  
e|---------3------3-5-7-7---|---7---------------------|
B|-------3---7--5-----------|-----5-5-7-7--8----------|
G|-----4--------------------|-------------------------|
D|-5------------------------|-------------------------|
A|--------------------------|-------------------------|
E|--------------------------|-------------------------|
                                                       
                                                       
[Verse] 
G                  C                      
Jag ser på vägen, tom och kall
Am7                    D   C  D                
På alla hus jag kör förbi tänker
G                      C                          
Fast jag är långt ifrån så finns du här
Am7              D  C   D   
Du är det vackra i mitt liv
                                                       
                                                       
[Chorus] 
G                                                       
Älskling, nu skymmer dagen här
C                                                       
Och fast du är ensam där
Am7                  D       D4 D5 D                       
Det finns en eld som brinner
G                       
Jag kommer sent inatt
C                                                       
Och ändå vet du att min kärlek
Am7                   D  C          G                
Har du för alltid den är vit som en snö
                                                       
                                                       
[Verse] 
G       C                                 
I alla fönster brinner ljus
Am7        D           C   D                            
Jag är på väg till dig
G                C                                                   
Snön har börjat falla
         Am7          D   C   D                                 
Och jag stannar inte mer
                                                       
                                                       
[Outro]
G                                                      
Nu skymmer dagen här
C                                                      
Och fast du är ensam där
Am7                  D       D4 D5 D                           
Det finns en eld som brinner
G                   
Jag kommer sent inatt
C                   Am7
Och ändå vet du att min kärlek
D              D D4 D5 D                            
Har du för alltid  ......   den är vit som snö
                                                       
   G        Gmaj7 C D G        C  D   G  
e|---------3------3-5-7-7---|-----2---3--3------------|
B|-------3---7--5-----------|--5----------------------|
G|-----4--------------------|-------------------------|
D|-5------------------------|-------------------------|
A|--------------------------|-------------------------|
E|--------------------------|-------------------------|

            
            
Suggest correction
Creating personal tab
Creating personal tab
You can edit any tab online and save it as your Personal.

You can edit, replace or remove any tab part or add personal notes – all changes will be seen only by you.

Personal tabs can be accessed anytime from any device, even offline.
Learn more »
Give kudos to tab author, rate the tab!
1 2 3 4 5
comments
print report bad tab
3 comments total.
+1 reply
mariekemelchers 33 Jun 17, 2016 07:58 AM

You have no idea how happy you made me with this tab :)

+1 reply
Mats Fagergren 2,071 Apr 09, 2017 03:26 PM

5 stars.. Sweden and Argentina in a nica Combo..!

guest
You may want to rate the tab now too:
select rating
Wanna post a correction for this tab? Suggest correction