Oops, an error
Loading. Please wait.

天気読み bass

61 views 1 this week
no commentswrite comment
1 2 3 4 5
3 more votes to show rating
add to favorites
×
Save as Personal and add changes to this tab that will be seen only by you. Learn more ›
×
You can save this tab as Personal to edit and correct it or add notes. All changes will be seen only by you. Learn more »
launch autoscroll
font size
0
reset
guitar tuner
edit
Autoscroll
slow
fast
+/-
esc
set tempo
stop
Author
Difficulty
Notation :
in regular sequence!
Song : https://www.youtube.com/watch?v=Kl2EeLH3VHE&list=PLC014A4F7D19D4A31

  [intro, verse 1]

G|----------------------------------|---------------------------------|
D|--------43---3-2----2-2/4--2------|---------------------------------|
A|-----4-----4------4----------4----|--5--5--05-4-0--------------2----|
D|--4----------------------------2--|---------------5--5-5--5-55---5--|

G|---------------------------2------|---------------------------------|
D|--------43---3-2----2-2/4----4----|------------------------5---3----|
A|-----4-----4------4------------4--|--5--5--05-4-0------5--5--5---5--|
D|--4-------------------------------|---------------5--5--------------|

G|----------------------------------|---------------------------------|
D|--------43---3-2----2-2/4---------|---------------------------------|
A|-----4-----4------4--------0-2-4--|--5--5--05-4-0--------------2----|
D|--4-------------------------------|---------------5--5-5--5-55---5--|

G|---------------------------2------|-----------------------------|
D|--------43---3-2----2-2/4----4-2--|---------------------3-------|
A|-----4-----4------4---------------|--5--5--05-0-------5----5\--|
D|--4-------------------------------|--------------5--5-----------|


  [verse 2]

G|-------------------------------|---------------------------------|
D|-------------------------------|---------------------------------|
A|--------------------------2-4--|--5--5--05-0-2--------------2----|
D|--4--4-44-4--4--4-4--4-44------|---------------5--5-5--5-55---5--|

G|-------------------------------|---------------------------------|
D|-------------------------------|---------------------------------|
A|--------------------------2-4--|--5--5--05-5-0--------------2----|
D|--4--4-44-4--4--4-4--4-44------|---------------5--5-5--5-55---5--|

G|------------------------------|
D|------------------------------|
A|--0--0-00-0---0--0-0--0--0----|
D|------------2----------2---2--|


  [verse 3]

G|---------------------------------|-----------------------------------|
D|---------------------------------|-----------------------------------|
A|--5--5-5--50-5-0-5--5-5--50-2-5--|--0--0-0--0--0---0--0-0--0--0---1--|
D|---------------------------------|-----------2---2----------2---2----|

G|----------------------------------|------------------------------------|
D|----------0-----------------------|---------------------------------2--|
A|--2---2--2--2-0--------------2----|--0--0-0--0--0---0--0--0-0--0--0----|
D|----------------5--5-5--54-5---5--|-----------2---2-------------2------|

G|-----------------------------------|---------------------------------|
D|--0--0-0--0------------------------|---------------------------------|
A|-----------0-2-5-0--0-0--0--0-2-3--|--4--4---2-4----------------4----|
D|--------------------------2--------|--------6----6-4--4-4--42-4---6--|

G|--------------------------------|---------------------------------|
D|-------------0-2----0-2----2----|--------------2-0--0---0--0-2-0--|
A|--2--2--20-2------2------2---2--|--0---0--02-4--------0-----------|
D|--------------------------------|---------------------------------|


  [verse 4]

G|-------------------------------|---------------------------------|
D|-------------------------------|---------------------------------|
A|--------------------------2-4--|--5--5--05-4-0--------------2----|
D|--4--4-44-4--4--4-4--4-44------|---------------5--5-5--5-55---5--|

G|-------------------------------|---------------------------------|
D|-------------------------------|---------------------------------|
A|--------------------------2-4--|--5--5--05-5-0--------------2----|
D|--4--4-44-4--4--4-4--4-44------|---------------5--5-5--5-55---5--|

G|-------------------------------|
D|-------------------------------|
A|--0--0--0--0---0--0-0--0--0----|
D|---------2---2----------2---2--|


  [verse 5]

G|---------------------------------|-----------------------------------|
D|---------------------------------|------------------------------2----|
A|--5--5-5--50-5-0-5--5-5--50-2-5--|--0--0-0--0--0---0--0-0--0--0---0--|
D|---------------------------------|-----------2---2----------2--------|

G|----------------------------------|------------------------------------|
D|----------0-----------------------|---------------------------------2--|
A|--2---2--2--2-0--------------2----|--0--0-0--0--0---0--0--0-0--0--0----|
D|----------------5--5-5--54-5---5--|-----------2---2-------------2------|

G|-----------------------------------|---------------------------------|
D|--0--0-0--0------------------------|---------------------------------|
A|-----------0-2-5-0--0-0--0--0-2-3--|--4--4---2-4----------------4----|
D|--------------------------2--------|--------6----6-4--4-4--42-4---6--|

G|----------------------------------|---------------------------------|
D|-------------0-2----0-1/2--0------|--------------2-0--0---0--0-2-0--|
A|--2--2--20-2------2----------2-1--|--0---0--02-4--------0-----------|
D|----------------------------------|---------------------------------|


  

G|---------------------------------|---------------------------------|
D|---------0-2--------0--02-4-2-0--|---------------0--0---------2----|
A|--0--4--4----0-2--2--------------|--4--4---2-4--------0--02-4---0--|
D|---------------------------------|--------6----6-------------------|

G|------------------|------------------|------------------------------|
D|------------------|--4--2--2---------|------------.-----------------|
A|-----2--24-5---5--|---------4---4-3--|--2--2--2---4-5--5-0---2-5-2--|
D|--5----------5----|-----------4------|----------------------4-------|

G|-------------------|---------------------------------|---------------------------------|
D|-------------------|---------------------------------|-----------0---2--2-----0-1-2----|
A|-0--0-----0-0-2-3--|--4--4---2-4----------------2-4--|--2--2---2---2------2--2------2--|
D|------2--2---------|--------6----6-4--4-4--4-44------|--------4------------------------|

G|--------------------------------|
D|-------------2-0--0---0--0-2-0--|
A|--0--0--0--0--------0-----------|
D|---------2----------------------|


  [verse 6]

G|----------------------------------|---------------------------------|
D|--------43---3-2----2-2/4--4-2----|---------------------------------|
A|-----4-----4------4------------4--|--5--5--05-4-0--------------2----|
D|--4-------------------------------|---------------5--5-5--5-55---5--|

G|---------------------------2------|---------------------------------|
D|--------43---3-2----2-2/4----4-2--|----------------------5-3--------|
A|-----4-----4------4---------------|--5--5--05-4-0------5-----5------|
D|--4-------------------------------|---------------5--5---------5-5--|

G|-------------------------------|
D|-------------------------------|
A|--0--0--0--0---0--0-0--0--0----|
D|---------2---2----------2---2--|


  [verse 7]

G|---------------------------------|-----------------------------------|
D|------------------------------2--|-----------------------------------|
A|--5--5-5--50-2-0-5--5-5--50-2----|--0--0-0--0--0---0--0-0--0--0---0--|
D|---------------------------------|-----------2---2----------2---2----|

G|----------------------------------|---------------------------------|
D|----------0-----------------------|---------------------------------|
A|--2---2--2--2-0--------------2----|--0--0-0--0--0---0--0-0--0--0----|
D|----------------5--5-5--54-5---5--|-----------2---2----------2---2--|

G|-----------------------------------|---------------------------------|
D|--0--0-0--0------------------------|--------------------------2------|
A|-----------0-2-4-0--0-0--0--0-5-0--|--4--4--4--2-4----------4---4----|
D|--------------------------2--------|---------6-----4--4-4--4------6--|

G|---------------------------------|---------------------------------|
D|-------------0-2--2-2---0-2-0----|--------------2-0--0---0--0-2-0--|
A|--2--2--20-2-----------2------2--|--0---0--02-4--------0-----------|
D|---------------------------------|---------------------------------|

G|-----------2--------------------|
D|---------2---2-0--0---0--0-2-0--|
A|--0--0--0-----------0-----------|
D|--------------------------------|


  

G|---------------------------------|---------------------------------|
D|---------0-2--------0--02-4-2----|---------------0--0---------2----|
A|--0--4--4----0-2--2-----------2--|--4--4---2-4--------0--02-4---0--|
D|---------------------------------|--------6----6-------------------|

G|------------------|------------------|-----------------------------|
D|-------------5----|--4--2--2---------|------------.----------------|
A|-----2--24-5---5--|---------4---4-3--|--2--2--2---4-5--5-0---2-5---|
D|--5---------------|-----------4------|----------------------4------|

G|-------------------|---------------------------------|-------------------------1------|
D|-------------------|---------------------------------|-------------0-2----0-2----2----|
A|-0--0-----0-0-2-3--|--4--4---2-4----------------4----|--2--2--20-2------2----------2--|
D|------2--2---------|--------6----6-4--4-4--4-44---6--|--------------------------------|

G|--------------------------------|-----------2-----------7---------|
D|-------------2-0--0---0--0-2-0--|---------2---2-0--0-/7----7-0-2--|
A|--0--0--02-4--------0-----------|--0--0--0------------------------|
D|--------------------------------|---------------------------------|

G|--------------------------------|----------2----------------------|
D|-------------2-0--0---0--0-2-0--|-----2/4----4-2-0--0---0--0-2-0--|
A|--0--0--02-4--------0-----------|--0------------------0-----------|
D|--------------------------------|---------------------------------|


  

G|----------------------------2----|---------------------------------|
D|---------0-2--------0--02-4---4--|---------------0--0--------------|
A|--0--4--4----0-2--2--------------|--4------2-4--------0--02-4-2-0--|
D|---------------------------------|-----6--6----6-------------------|

G|------------------|------------------|----------------------------|
D|-------------5----|--4--2--2---------|------------.---------------|
A|-----2--24-5---5--|---------4---4-3--|--2--2--2---4-5--5-0---2-5--|
D|--5---------------|-----------4------|----------------------4-----|

G|-------------------|---------------------------------|----------------------------------|
D|-------------------|---------------------------------|-------------0-2----0-1/2--0---0--|
A|-0--0-----0-0-2-3--|--4--4----2-4---------------4----|--2--2--20-2------2----------2----|
D|------2--2---------|--------6------4--4-4--4-44---6--|----------------------------------|

G|-----------2--------------------|----------2----------------------|
D|---------2---2-0--0---0--0-2-0--|-----2/4----4-2-0--0---0--0-2-0--|
A|--0--0--0-----------0-----------|--0------------------0-----------|
D|--------------------------------|---------------------------------|


  [verse 8]

G|---------------------------------|---------------------------------|
D|--------43---3-2-----2/4--2---2--|---------------------------------|
A|-----4-----4------4---------4----|--5--5--05-4-0--------------2----|
D|--4------------------------------|---------------5--5-5--5-55---5--|

G|---------------------------2------|----------------------------------|
D|--------43---3-2----2-2/4----4-2--|--------------------5--5-345-3----|
A|-----4-----4------4---------------|--5--5--05-4-0-----------------5--|
D|--4-------------------------------|---------------5--5---------------|

G|----------------------------------|---------------------------------|
D|--------43---3-2----2-2/4---------|------------------------.--------|
A|-----4-----4------4--------0-2-4--|--5--5--05-4-0------2---4---2----|
D|--4-------------------------------|---------------5--5----5--5---5--|

G|---------------------------------|-----------------------------------|
D|--------43---3-2----2-2/4--------|--------------------5-35-/7-5-3----|
A|-----4-----4------4--------0--2--|--5--5--05-4-0----5-------------5--|
D|--4------------------------------|---------------5-------------------|

G|----------------------------------|---------------------------------|
D|--------43---3-2----2-2/4---------|--------------------.------------|
A|-----4-----4------4--------0-2-4--|--5--5--05-4-0------2-2-3-3-5-4--|
D|--4-------------------------------|---------------5--5--------------|

G|---------------------------2-4-2--|---------------------------------|
D|--------43---3-2----2-2/4---------|--------------------5------------|
A|-----4-----4------4---------------|--5--5--05-4-0----5---5-4-2---2--|
D|--4-------------------------------|---------------5------------5----|

G|----------------------------------|---------------------------------|
D|--------43---3-2----2-2/4--2------|---------------------------------|
A|-----4-----4------4----------4----|--5--5--05-4-0--------------2----|
D|--4----------------------------2--|---------------5--5-5--5-55---5--|

G|---------------------------2------|---------------------------------|
D|--------43---3-2----2-2/4----4-2--|----------------------------2----|
A|-----4-----4------4---------------|--5--5--05-4-0------0--02-5---5--|
D|--4-------------------------------|---------------5--5--------------|

G|----------------------------------|---------------------------------|
D|--------43---3-2----2-2/4--2---2--|---------------------------------|
A|-----4-----4------4----------4----|--5--5--05-4-0--------------2----|
D|--4-------------------------------|---------------5--5-5--5-55---5--|


  [outro] 
                                                             (fade out)
G|---------------------------2------|---------------------------------|
D|--------43---3-2----2-2/4----4-2--|---------------------------------|
A|-----4-----4------4---------------|--5--5--05-4-0--------------2----|
D|--4-------------------------------|---------------5--5-5--5-55---5--|


*********************

/ : slide up
. : staccato

*********************
Suggest correction
Creating personal tab
Creating personal tab
You can edit any tab online and save it as your Personal.

You can edit, replace or remove any tab part or add personal notes – all changes will be seen only by you.

Personal tabs can be accessed anytime from any device, even offline.
Learn more »
Give kudos to tab author, rate the tab!
1 2 3 4 5
comments
print report bad tab
guest
You may want to rate the tab now too:
select rating
Wanna post a correction for this tab? Suggest correction