Oops, an error
Loading. Please wait.

Águas De Março tab

787 views 9 this week
no commentswrite comment
1 2 3 4 5
2 more votes to show rating
add to favorites
×
Save as Personal and add changes to this tab that will be seen only by you. Learn more ›
×
You can save this tab as Personal to edit and correct it or add notes. All changes will be seen only by you. Learn more »
launch autoscroll
font size
0
reset
how to read this tab
guitar tuner
backing track
0:00
0:00
edit
Autoscroll
slow
fast
+/-
esc
set tempo
stop
Author
Difficulty
"Águas de Março" 
By: Tom Jobin
Chords and Tab: http://www.cifras.com.br/cifra/tom-jobim/aguas-de-marco
Video: https://www.youtube.com/watch?v=y8uW8pIdpiM

[Intro]

Bb/Ab x2


[Verse]

Bb/Ab                          Gm6
É pau, é pedra, é o fim do caminho   
                Ebm6/Gb                    Bb7M/F 
É um resto de toco,         é um pouco sozinho  
                      E7(9)                   Eb7M(9)  
É um caco de vidro,         é a vida, é o sol  
                Ab7(13) Ab7(13)(9)         Bb6(9)  
É a noite, é a morte,       é o laço, é o anzol  
               Bbsus   Bb7(9-)                C/E  
É peroba do campo,           é o nó da madeira  
          Ebm6                   Bb6(9)  
Caingá, candeia, é o Matita Pereira  
                Bbsus     Bb7(9-)          Em7(5º)       
É madeira de vento,          tombo da ribanceira  
                    Ebm6                         Bb6(9)  
É o mistério profundo,      é o queira ou não queira  
                 Bb/Ab                   Gm6               
É o vento ventando,     é o fim da ladeira  
                Ebm6/Gb                Bb7M/F  
É a viga, é o vão,     festa da cumeeira  
                 E7(9)                Eb7M(9)  
É a chuva chovendo,    é conversa ribeira  
               Ab7(13) Ab7(13)(9)          Bb6(9)  
Das águas de março,         é o fim da canseira  
                 Bb/Ab                    Gm6  
É o pé, é o chão      é a marcha estradeira  
                     Ebm6/Gb              Bb7M/F  
Passarinho na mão,       pedra de atiradeira                   
              Bbsus   Bb7(9-)     C/E  
Uma ave no céu,        uma ave no chão  
                     Ebm6                    Bb6(9)  
É um regato, é uma fonte,    É um pedaço de pão  
               Bb/Ab                 Gm6  
É o fundo do poço,  é o fim  do caminho  
                  Ebm6/Gb              Bb7M/F  
No rosto o desgosto,    é um pouco sozinho     
                      E7(9)                   Eb7M(9)  
É um estrepe, é um prego      É uma ponta, é um ponto      
               Ab7(13)  Ab7(13)(9)          Bb6(9)  
É um pingo pingando,     É uma conta, é um conto  
                    Bbsus   Bb7(9-)          C/E  
É um peixe, é um gesto,     É uma prata brilhando  
              Ebm6                     Bb6(9)  
É a luz da manhã,     é o tijolo chegando  
                      Bb/Ab               Gm6  
É a lenha,    é o dia       é o fim da picada     
                 Ebm6/Gb                     Bb7M/F  
É a garrafa de cana,       o estilhaço na estrada  
                   Bbsus   Bb7(9-)      C/E  
É o projeto da casa,     é o corpo na cama  
                  Ebm6                  Bb6(9)  
É o carro enguiçado,     é a lama, é a lama  
                    Bb/Ab                 Gm6  
É um passo, é uma ponte, é um sapo, é uma rã     
                Ebm6/Gb                  Bb7M/F  
É um resto de mato          na luz da manhã     
                   E7(9)             Eb7M(9)  
São as águas de março   fechando o verão  
                 Ab7(13)(9)             Bb6(9)  
É a promessa de vida        no teu coração  


[Solo]
                      
e|-----4-----4-------4--4-----9-----------------------------6-----| 
B|--------5-------5-------7-5--------6-----6-------6--6-----------| 
G|--------4-------4---------------------6-------6-------8-6-------| 
D|--------------------------------------6-------6-----------------| 
A|----------------5-----5-----------------------------------------| 
E|--------------------------------7-----7-------7-----7-----------| 
    
e|-------------3---------------2----------------------------------| 
B|----3--3------------3--3------------3--3-1---10---------------9-| 
G|---------5-3-------------5-3---------------3---------7--7-5-----| 
D|------------------------------------------------------------8---| 
A|--------------------------------------------------8-----8-------| 
E|-4-----4---------3-----3---------2-----2------------------------| 
                   
e|----------------------------------------------------------------| 
B|-----------------------------------------------------3-----3----| 
G|-----7--7-5---7---5--7--7-5---5------7--7-5-3-3---------3-------| 
D|------------8---------------8-----------------------------------| 
A|--7---------------6-----6---------------4---------1-----1-------| 
E|--------0-------------------------4-----------------------------| 

e|----------------------------------------------------------------| 
B|-----3--3------------3--3------------3--3-1---------------------| 
G|--3-------5-3-3-----------5-3-3-------------3-3-----------------| 
D|----------------------------------------------------------------| 
A|--------------------------------------------------1-------------| 
E|--4-----4---------3-----3---------2-----2-----------------------| 


[Verse]
                         Bbsus              Eb7M(9)  
É uma cobra, é um pau,         é João, é José  
                 Ebm6                  Bb6(9)  
É um espinho na mão,     é um corte no pé     
                Bbm7               C/Bb  
São as águas de março fechando o verão  
                  B/Bb              Bb/Bb  
É a promessa de vida no teu coração  
                Bb/Ab                Gm6  
É pau, é pedra,   é o fim do caminho  
                Ebm6/Gb                  Bb7M/F  
É um resto de toco,       é um pouco sozinho  
                     Bbm7                C/Bb  
É um passo, é uma ponte, é um sapo, é uma rã     
                    B/Bb                  Bb/Bb  
É um belo horizonte,        é uma febre terçã    
                   Bbm7               C/Bb  
São as águas de março   fechando o verão     
                  B/Bb                  Bb/Bb  
É a promessa de vida        no teu coração     
       Bbsus   Bb7(9-) Eb7M(9)         Ebm6      Bb6(9)                 
au,   edra,    im,       inho        resto   oco   ouco   inho     
  Bbsus            Bb7(9)  Eb7M(9)      Ebm6        Bb6(9)  
aco      idro         ida       ol        oite      orte   aço     ol     
                 Bbsus  Bb7(9-)  Eb7M(9)  
São as águas de março fechando o verão  
                 Ebm6          Bb6(9)  
É a promessa de vida no teu coração  


Bbsus   Bb7(9-)     Eb7M(9)  
(vocalização)  

Ebm6        Bb6(9)  
(Vocalização)  

Bbm7      C/Bb      B/Bb     Bb/Bb  | x2  
(Vocalização) 


[Final Solo]

e|-----10----18/--------------------------------------------------| 
B|-3------11------------------------------------------------------| 
G|---3------------------------------------------------------------| 
D|----------------------------------------------------------------| 
A|----------------------------------------------------------------| 
E|----------------------------------------------------------------|



************************************

| /  Slide up

************************************

            
            
Suggest correction
Creating personal tab
Creating personal tab
You can edit any tab online and save it as your Personal.

You can edit, replace or remove any tab part or add personal notes – all changes will be seen only by you.

Personal tabs can be accessed anytime from any device, even offline.
Learn more »
Give kudos to tab author, rate the tab!
1 2 3 4 5
comments
print report bad tab
guest
You may want to rate the tab now too:
select rating
Wanna post a correction for this tab? Suggest correction