Oops, an error
Loading. Please wait.

秦皇島 Qinhuangdao ukulele

100 views 6 this week
no commentswrite comment
1 2 3 4 5
3 more votes to show rating
add to favorites
×
Save as Personal and add changes to this tab that will be seen only by you. Learn more ›
×
You can save this tab as Personal to edit and correct it or add notes. All changes will be seen only by you. Learn more »
launch autoscroll
font size
0
reset
transpose
0
reset
simplify chords
display chords
guitar tuner
edit
Autoscroll
slow
fast
+/-
esc
set tempo
stop
Author
Difficulty
Strumming
There is no strumming pattern for this song yet. and get +5 IQ
(the main note is in brackets. So you can play without chords, just melody)

[Intro]

A|--7----------|--7------------|--11--------------|---------6------|
E|--5----------|--5------------|--9---------------|----------------|
C|--7----------|--5------------|--9---------------|--6-------------|
G|--5----------|--5------------|--9---------------|----------------|

A|--------(7)--|--5--4----(7)--|--5--4--4--4-(4)--|----(5)---------|
E|--5--7---5---|------7-5--5---|------7----5--5---|--7--7----------|
C|---------4---|-----------4---|----------(6)-6---|-----4----------|
G|---------6---|-----------6---|-----------6--6---|-----4----------|

A|--4-----(7)--|----4-----(7)--|----4------4-(4)--|----(5)---------|
E|-----5---5---|--7---7-5--5---|--7---7-5--5--5---|--7--7----4-----|
C|---------4---|-----------4---|----------(6)-6---|-----4------1---|
G|---------6---|-----------6---|-----------6--6---|-----4-----(2)--|

[Verse 1]

A             Amaj7
站在能分割世界的橋
Zhàn zài néng fēngē shìjiè de qiáo
       F#m
還是看不清
háishì kàn bù qīng
       D
在那些時刻
zài nàxiē shíkè
     A       Amaj7
遮蔽我們 黑暗的心
zhēbì wo3men hēi'àn de xīn
       F#m
究竟是什麼
jiùjìng shì shénme
D
Ah

[Bridge 1]

A|--4--7--7---7---7--|----4--7--7---7---7--|----4--4--4---4---4----|--5------5------4--4------|
E|-(5)------5---5----|-5/(4)------4---4----|-4/(5)------5---5---5--|--5----5---5---------5----|
C|--4----------------|----4----------------|----6------------------|-(6)-6-------6---------6--|
G|--4----------------|----4----------------|----6------------------|--7-----------------------|

A|--4--7--7---7---7--|----4--7--7---7---7--|----4--4--4---4---4----|--5------5------4---------|
E|-(5)------5---5----|-5/(4)------4---4----|-4/(5)------5---5---5--|--5----5---5--------------|
C|--4----------------|----4----------------|----6------------------|-(6)-6-------6------------|
G|--4----------------|----4----------------|----6------------------|--7-----------------------|

[Verse 2]

A              Amaj7
住在我心裏孤獨的
zhù zài wo3 xīnli3 gūdú de
       F#m
孤獨的海怪
gūdú de hai3 guài
     D
痛苦之王
tòngku3 zhī wáng
     A       Amaj7
開始厭倦 深海的光
kāishi3 yànjuàn shēnhai3 de guāng
       F#m
停滯的海浪
tíngzhì de hai3làng
D
Ah~~


[Verse 3]

A                Amaj7
站在能看到燈火的橋
zhàn zài néng kàn dào dēnghuo3 de qiáo
       F#m
還是看不清
háishì kàn bù qīng
       D
在那些夜晚
zài nàxiē yèwan3
     A       Amaj7
照亮我們 黑暗的心
zhào liàng wo3men hēi'àn de xīn
       F#m
究竟是什麼
jiùjìng shì shénme
D
Ah


[Verse 4]

A           Amaj7
於是他默默追逐著
yúshì tā mòmò zhuīzhúzhe
     F#m     D
橫渡海峽 年輕的人
héngdù hai3xiá niánqīng de rén
     A       Amaj7
看著他們 為了彼岸
kànzhe tāmen wèile bi3'àn
      F#m      D
驕傲地  驕傲地 滅亡
jiāo'ào de jiāo'ào de mièwáng

            
            
Suggest correction
Creating personal tab
Creating personal tab
You can edit any tab online and save it as your Personal.

You can edit, replace or remove any tab part or add personal notes – all changes will be seen only by you.

Personal tabs can be accessed anytime from any device, even offline.
Learn more »
Give kudos to tab author, rate the tab!
1 2 3 4 5
comments
print report bad tab
guest
You may want to rate the tab now too:
select rating
Wanna post a correction for this tab? Suggest correction