Oops, an error
Loading. Please wait.

Страсть К Курению tab

version 1
version 1

Whole song

Interactive

12,853 views 210 this week
8 commentsread comments
1 2 3 4 5
x 10
add to favorites
×
Save as Personal and add changes to this tab that will be seen only by you. Learn more ›
×
You can save this tab as Personal to edit and correct it or add notes. All changes will be seen only by you. Learn more »
launch autoscroll
font size
0
reset
how to read this tab
guitar tuner
edit
Autoscroll
slow
fast
+/-
esc
set tempo
stop
Author
Difficulty
[Intro]

                               Am                       C          
e|---------------------------|---7-7-----------7-7--------------------------------------------------|
B|---------------------------|--------8-8-----------8-8------------------8-----------------8--------|
G|---------------------------|-------------9---9-----------------10-10-9-----------10-10-9----------| x4
D|-10-10-10-10-10-10-9-9-9-7-|-7----------------------- 10---10-----------10---10-----------7-------|
A|---------------------------|----------------------------------------------------------------------|
E|---------------------------|----------------------------------------------------------------------|


[Verse]

e|-------------------------------------|
B|--------8-8--------------------------|
G|------------9-----------10-10-9------|
D|--7---7-------10-7----7---------10-7-|
A|-------------------------------------|
E|-------------------------------------|

[Solo]

e|----|-----------------------------------------|
B|----|-10-10-10-13-13-13-----------------------|
G|----|-------------------9--9-9-9-10-10-10-9---| x12
D|-10-|-----------------------------------------|
A|----|-----------------------------------------|
E|----|-----------------------------------------|


[Verse 2]

e|------7-------10----7--|
B|----8------8------8----|
G|----------9------------|
D|--7-------------7------|
A|-----------------------|
E|-----------------------|


 

            
            
Suggest correction
Creating personal tab
Creating personal tab
You can edit any tab online and save it as your Personal.

You can edit, replace or remove any tab part or add personal notes – all changes will be seen only by you.

Personal tabs can be accessed anytime from any device, even offline.
Learn more »
comments
print report bad tab
8 comments total. Showing first comments.
+2 reply
degot88 968 Jul 13, 2016 06:16 AM

Правильная таба:

Куплет

e|----------------------(каждый 2 раз)-|
B|--------8-8--------------------------|
G|------------9-----------10-10-9------|
D|--7---7-------10-7----7---------10-7-|
A|-------------------------------------|
E|-------------------------------------|


Соло
e|----|-----------------------------------------|
B|----|-10-10-10-13-13-10-----------------------|
G|----|-------------------9--9-9-9-10-10-10-9---|
D|-10-|-----------------------------------------|
A|----|-----------------------------------------|
E|----|-----------------------------------------|


Концовка
e|------7--------10---7--|
B|-----------8-----------|
G|----9-----9-------9----|
D|--7-------------7------|
A|-----------------------|

E|-----------------------|

0 reply
PixelShoot 147 Apr 29, 2017 03:27 AM, edited at 07:28 am

В конце каждого круга куплета играется этот проигрышe
|--------------------|B|------8-8-----------|G|-9--9-----10--------|D|-------------10-----|A|--------------------|E|--------------------|

0 reply
PixelShoot 147 Apr 29, 2017 03:29 AM

В конце каждого круга куплета играется этот проигрыш
e|--------------------|
B|------8-8-----------|
G|-9--9-----10--------|
D|-------------10-----|
A|--------------------|
E|--------------------|

guest
You may want to rate the tab now too:
select rating
Wanna post a correction for this tab? Suggest correction