Oops, an error
Loading. Please wait.

一块红布 A Piece Of Red Cloth chords

166 views 3 this week
no commentswrite comment
1 2 3 4 5
3 more votes to show rating
add to favorites
×
Save as Personal and add changes to this tab that will be seen only by you. Learn more ›
×
You can save this tab as Personal to edit and correct it or add notes. All changes will be seen only by you. Learn more »
launch autoscroll
font size
0
reset
transpose
0
reset
display chords
guitar tuner
edit
Autoscroll
slow
fast
+/-
esc
set tempo
stop
Author
Strumming Is this strumming pattern correct? Yes No
0 bpm
1
2
3
4
5
6
7
8
9
10
11
12
13
14
15
16
17
18
19
20
21
22
23
24
25
26
27
28
29
30
31
32
Listen
youtube: https://youtu.be/OspWXXBEo4A

[Intro pattern]
   G                         C
E|-3-----3--3--3--3--3--3--|-0-----0--0-----0--0--0--|
A|-0-----0--0--0--0--0--0--|-1-----1--1-----1--1--1--|
D|-0-----0--0--2--0--0--0--|-0-----0--0-----0--0--0--|
G|-0-----0--0--0--0--2--0--|-2-----2--2-----2--2--2--|
B|-2-----2--2--2--2--2--2--|-3-----3--3-----3--3--3--|
e|-3-----3--3--3--3--3--3--|-3-----3--3-----3--3--3--|

   Am                         G
E|-0--0--0--0-----0--0--0--|-3-----3--3-----3--3--3--|
A|-1--1--1--1-----1--1--1--|-0-----0--0-----0--0--0--|
D|-2--2--2--2-----2--2--2--|-0-----0--0-----0--0--0--|
G|-2--2--2--2-----2--2--2--|-0-----0--0-----0--0--0--|
B|-0--0--0--0-----0--0--0--|-2-----2--2-----2--2--2--|
e|-------------------------|-3-----3--3-----3--3--3--|

[Intro]
G C Am G

G C Am G

G C Am G

G C Am G

[Verse 1]

G          C
 那天是你用一块红布
Am         G
 蒙住我双眼也蒙住了天
G        C
 你问我看见了什么
Am       G
 我说我看见了幸福
G          C
 这个感觉真让我舒服
Am         G
 它让我忘掉我没地儿住 
G         C
 你问我还要去何方
Am         C
 我说要上你的 路

G  C  Am C

G  C  Am C

G        C
 看不见你也看不见路
Am       G
 我的手也被你攥住
G       C
 你问我在想什么
Am       G
 我说要让你 做主


[Chorus]

C   G    C  G
我感觉,你不是铁
D         G
 却象铁一样强和烈
C  G     C    G
我感觉,你身上有血
Am         G
 因为你的手是热乎乎
G          C
 这个感觉真让我舒服
Am         G
 它让我忘掉我没地儿住
G        C
 你问我还要去何方
Am         G
 我说要上你的 路


[Interlude]

G     C    Am   G

G     C    Am   G


[Chorus]

C  G    C    G
我感觉,这不是荒野
D            G
 却看不见这土地已经干裂
C  G      C   G
我感觉,我要喝点水
Am         G
 可你的嘴将我的嘴堵住
C  G    C    G
我感觉,这不是荒野
D            G
 却看不见这土地已经干裂
C  G      C   G
我感觉,我要喝点水
Am         G
 可你的嘴将我的嘴堵住

G          C
 我不能走我也不能哭
Am       G
 因为我身体已经干枯
G          C
 我要永远这样陪伴着你
Am         G
 因为我最知道你的痛苦

G     C    Am   G
嘟 ……
G     C    Am   G
嘟 ……

            
            
Suggest correction
Creating personal tab
Creating personal tab
You can edit any tab online and save it as your Personal.

You can edit, replace or remove any tab part or add personal notes – all changes will be seen only by you.

Personal tabs can be accessed anytime from any device, even offline.
Learn more »
Give kudos to tab author, rate the tab!
1 2 3 4 5
comments
print report bad tab
guest
You may want to rate the tab now too:
select rating
Wanna post a correction for this tab? Suggest correction