Oops, an error
Loading. Please wait.

Exercises In Futility Iv tab

version 1
version 1

Whole song

Interactive

by Mgła
3,019 views 36 this week
no commentswrite comment
1 2 3 4 5
x 3
add to favorites
×
Save as Personal and add changes to this tab that will be seen only by you. Learn more ›
×
You can save this tab as Personal to edit and correct it or add notes. All changes will be seen only by you. Learn more »
launch autoscroll
font size
0
reset
how to read this tab
guitar tuner
edit
Autoscroll
slow
fast
+/-
esc
set tempo
stop
[Intro]                                 [Verse]

D|-----------0---------------------------|---------------------------------------------------|
A|-------3---------------3---------------|-----5-----5-----5-----5-----6-----6-----6-------3-|
F|---2---------2-----2-------2-----------|---------------------------5-----5-----5-----------|
C|-2-3-----2---3---2-3-----2-3-----------|---2-----2-----2-----2---3-----3-----3-------------|
G|-0---3---0-----3-0---3---0---3-3-3-2-3-|-0-----0-----0-----0-----------------------3-3-3---|
D|---------------------------------------|---------------------------------------------------|

                                                       [Verse]
D|-----------------------------------------------------|---------------------------------------------------|
A|-----5-----5-----5-----5-----6-----6-----6-----------|-----5-----5-----5-----5-----6-----6-----6-------3-|
F|---------------------------5-----5-----5-------------|---------------------------5-----5-----5-----------|
C|---2-----2-----2-----2---3-----3-----3---------------|---2-----2-----2-----2---3-----3-----3-------------|
G|-0-----0-----0-----0-----------------------3-3-3-2-3-|-0-----0-----0-----0-----------------------3-3-3---|
D|-----------------------------------------------------|---------------------------------------------------|

D|-------------------------------------------------------|
A|-----5-----5-----5-----5-----6-----6-------6-----------|
F|---------------------------5-----5-------5-------------|
C|---2-----2-----2-----2---3-----3-----3-----------------|
G|-0-----0-----0-----0-------------------------3-3-3-2-3-|
D|-------------------------------------------------------|


 [Riff 1]

   Some are born without a purpose
D|-----------------------------------------------------------------------------------------3-3-3-3---------|
A|-------------------------------------------------------------------------------------------------5-5-5-5-|
F|---2-2-2-2-5-5-5-5-2-2-2-2---2-2-2-2-5-5-5-5-2-2-2-2---2-2-2-2-5-5-5-5-2-2-2-2---2-2-2-2-----------------|
C|---------------------------------------------------------------------------------------------------------|
G|-0-------------------------0-------------------------0-------------------------0-------------------------|
D|---------------------------------------------------------------------------------------------------------|

Other than prolonged demise in ornate ways
D|-----------------------------------------------------------------------------------------------------------|
A|---------5-5-5-5------------------3-3-3-3--------------------------3-3-3-3---------------------------------|
F|--5-5-5-5--------5-5-5-5--5-5-5-5---------4-4-4-4--2-2-2-2-5-5-5-5---------4-4-4-4---------2-2-2-2---------|
C|3------------------------3------------------------3--------------------------------5-5-5-5---------2-2-2-2-|
G|-----------------------------------------------------------------------------------------------------------|
D|-----------------------------------------------------------------------------------------------------------|

 [Riff 1]
   Most of the time it's pathetic, quick and useless
D|-----------------------------------------------------------------------------------------3-3-3-3---------|
A|-------------------------------------------------------------------------------------------------5-5-5-5-|
F|---2-2-2-2-5-5-5-5-2-2-2-2---2-2-2-2-5-5-5-5-2-2-2-2---2-2-2-2-5-5-5-5-2-2-2-2---2-2-2-2-----------------|
C|---------------------------------------------------------------------------------------------------------|
G|-0-------------------------0-------------------------0-------------------------0-------------------------|
D|---------------------------------------------------------------------------------------------------------|

And good neighbours don't bother digging up the graves
D|-----------------------------------------------------------------------------------------------------------|
A|----------5-5-5-5------------------3-3-3-3--------------------------3-3-3-3--------------------------------|
F|--5-5-5-5---------5-5-5-5--5-5-5-5---------4-4-4-4--2-2-2-2-5-5-5-5---------4-4-4-4---------2-2-2-2--------|
C|3-------------------------3------------------------3--------------------------------5-5-5-5---------2-2-2-2|
G|-----------------------------------------------------------------------------------------------------------|
D|-----------------------------------------------------------------------------------------------------------|


 [Riff 1]

   It's rows upon rows of kings, whores and pawns
D|-----------------------------------------------------------------------------------------3-3-3-3---------|
A|-------------------------------------------------------------------------------------------------5-5-5-5-|
F|---2-2-2-2-5-5-5-5-2-2-2-2---2-2-2-2-5-5-5-5-2-2-2-2---2-2-2-2-5-5-5-5-2-2-2-2---2-2-2-2-----------------|
C|---------------------------------------------------------------------------------------------------------|
G|-0-------------------------0-------------------------0-------------------------0-------------------------|
D|---------------------------------------------------------------------------------------------------------|

                                                    And the storm is rolling
D|-----------------------------------------------------------------------------------------------------------|
A|----------5-5-5-5------------------3-3-3-3--------------------------3-3-3-3--------------------------------|
F|--5-5-5-5---------5-5-5-5--5-5-5-5---------4-4-4-4--2-2-2-2-5-5-5-5---------4-4-4-4---------2-2-2-2--------|
C|3-------------------------3------------------------3--------------------------------5-5-5-5---------2-2-2-2|
G|-----------------------------------------------------------------------------------------------------------|
D|-----------------------------------------------------------------------------------------------------------|


 [Riff 1]

  The vengeful and the bitter reach out for their fix
D|-----------------------------------------------------------------------------------------3-3-3-3---------|
A|-------------------------------------------------------------------------------------------------5-5-5-5-|
F|---2-2-2-2-5-5-5-5-2-2-2-2---2-2-2-2-5-5-5-5-2-2-2-2---2-2-2-2-5-5-5-5-2-2-2-2---2-2-2-2-----------------|
C|---------------------------------------------------------------------------------------------------------|
G|-0-------------------------0-------------------------0-------------------------0-------------------------|
D|---------------------------------------------------------------------------------------------------------|

Rebels never realized that their angst was a mockery
D|-----------------------------------------------------------------------------------------------------------|
A|----------5-5-5-5------------------3-3-3-3--------------------------3-3-3-3--------------------------------|
F|--5-5-5-5---------5-5-5-5--5-5-5-5---------4-4-4-4--2-2-2-2-5-5-5-5---------4-4-4-4---------2-2-2-2--------|
C|3-------------------------3------------------------3--------------------------------5-5-5-5---------2-2-2-2|
G|-----------------------------------------------------------------------------------------------------------|
D|-----------------------------------------------------------------------------------------------------------|


 [Riff 2]

D|---------------------------8-8-0-0-7-7-0-0-5-5-0-0-3-3-----|
A|-------------------5-5-5-5-----------------------------5-5-|
F|---2-2-2-2-4-4-4-4-----------------------------------------|
C|-----------------------------------------------------------|
G|-0---------------------------------------------------------|
D|-----------------------------------------------------------|

D|---------------------------8-8-0-0-7-7-0-0-5-5-0-0-3-3-----------------5-5-----------------|
A|-------------------5-5-5-5-----------------------------5-5-6-6-----5-5-----6-6-----8-8-----|
F|---2-2-2-2-4-4-4-4---------------------------------------------5-5-------------5-5-----7-7-|
C|-------------------------------------------------------------------------------------------|
G|-0-----------------------------------------------------------------------------------------|
D|-------------------------------------------------------------------------------------------|


 [Riff 2]
                                                     Every empire
D|---------------------------8-8-0-0-7-7-0-0-5-5-0-0-3-3-----|
A|-------------------5-5-5-5-----------------------------5-5-|
F|---2-2-2-2-4-4-4-4-----------------------------------------|
C|-----------------------------------------------------------|
G|-0---------------------------------------------------------|
D|-----------------------------------------------------------|

                                                     Every nation                    
Every tribe
D|---------------------------8-8-0-0-7-7-0-0-5-5-0-0-3-3-----------------5-5-----------------|
A|-------------------5-5-5-5-----------------------------5-5-6-6-----5-5-----6-6-----8-8-----|
F|---2-2-2-2-4-4-4-4---------------------------------------------5-5-------------5-5-----7-7-|
C|-------------------------------------------------------------------------------------------|
G|-0-----------------------------------------------------------------------------------------|
D|-------------------------------------------------------------------------------------------|


 [Riff 2]
                                                     Thought it would end
D|---------------------------8-8-0-0-7-7-0-0-5-5-0-0-3-3-----|
A|-------------------5-5-5-5-----------------------------5-5-|
F|---2-2-2-2-4-4-4-4-----------------------------------------|
C|-----------------------------------------------------------|
G|-0---------------------------------------------------------|
D|-----------------------------------------------------------|

                                                     In a bit more decent way
D|---------------------------8-8-0-0-7-7-0-0-5-5-0-0-3-3-----------------5-5-----------------|
A|-------------------5-5-5-5-----------------------------5-5-6-6-----5-5-----6-6-----8-8-----|
F|---2-2-2-2-4-4-4-4---------------------------------------------5-5-------------5-5-----7-7-|
C|-------------------------------------------------------------------------------------------|
G|-0-----------------------------------------------------------------------------------------|
D|-------------------------------------------------------------------------------------------|

VERSE  x4
RIFF 1 x2
RIFF 2 x4


 [Outro]

  And repeat ad nauseam
D|---------------------------|
A|---------------------------|
F|---2-2-2-2-5-5-5-5-2-2-2-2-|
C|---------------------------| x7
G|-0-------------------------|
D|---------------------------|

D|---|
A|---|
F|---|
C|-2-|
G|-0-|
D|---|

Author: The_Somberlain (https://www.youtube.com/channel/UCzim7wjveSEXYAqbrEKaHqA)

            
            
Suggest correction
Creating personal tab
Creating personal tab
You can edit any tab online and save it as your Personal.

You can edit, replace or remove any tab part or add personal notes – all changes will be seen only by you.

Personal tabs can be accessed anytime from any device, even offline.
Learn more »
Give kudos to tab author, rate the tab!
1 2 3 4 5
comments
print report bad tab
guest
You may want to rate the tab now too:
select rating
Wanna post a correction for this tab? Suggest correction