Oops, an error
Loading. Please wait.

소녀여 bass

52 views 1 this week
no commentswrite comment
1 2 3 4 5
3 more votes to show rating
add to favorites
×
Save as Personal and add changes to this tab that will be seen only by you. Learn more ›
×
You can save this tab as Personal to edit and correct it or add notes. All changes will be seen only by you. Learn more »
launch autoscroll
font size
0
reset
guitar tuner
edit
Autoscroll
slow
fast
+/-
esc
set tempo
stop
Author
Difficulty
Song : https://www.youtube.com/watch?v=VAG5F7Y1q3g




   [intro]
G|--------------|--------------|-------------|-----------------------|------------------------|
D|--------.-----|--------------|-------------|-----------5/7---4-----|------------------------|
A|--3/5---2--3--|--2---.--2-3--|-------------|-------5------------5--|-------5-------0--1--2--|
E|--------------|------5-------|----------2--|--3--------------------|--3--------3------------|


   [verse 1]
G|--------------|--------------|--------------|--------------|--------------|-------------------|
D|--------------|-----------2--|--------------|--------------|--------------|--2----2---2-------|
A|-----------2--|--0----0------|--2----2---2--|--0----0---2--|--0----0---2--|-------------------|
E|--3----3------|--------------|--------------|--------------|--------------|----------------2--|


G|--------------|--------------|--------------|--------------|
D|--------------|-----------2--|--------------|--------------|
A|-----------2--|--0----0------|--2----2---2--|--------------|
E|--3----3------|--------------|--------------|--2--------3--|


G|------------------|------------------|------------------|---------------------|
D|------------------|------------------|------------------|---------------------|
A|------------------|------------------|--3---------------|--2--------3---3--3--|
E|--4--------5---3--|--2--------3---3--|-----------1---1--|---------------------|


G|--------------------------|
D|--------------------------|
A|--2/3-2-0---------3-------|
E|----------3--0--3------2--|


   [verse 2]
G|--------------|--------------|--------------|--------------|--------------|------------------|
D|--------------|-----------2--|--------------|--------------|--------------|------------------|
A|-----------2--|--0----0------|--2----2---2--|--0----0---2--|--0----0---2--|------------------|
E|--3----3------|--------------|--------------|--------------|--------------|--x-0--0--0----2--|


G|--------------|--------------|--------------|--------------|
D|--------------|--------------|--------------|--------------|
A|-----------2--|--0----0------|--2----2---2--|--------------|
E|--3----3------|-----------0--|--------------|--2--------3--|


G|------------------|------------------|------------------|---------------------|
D|------------------|------------------|------------------|---------------------|
A|------------------|------------------|--3---------------|--2--------3---3--4--|
E|--4--------5---3--|--2--------3---3--|-----------1---1--|---------------------|


G|--------------------------|
D|----------2/4-2-----------|
A|--5--------------5--------|
E|------5-------------3-2---|

  
   
G|-------------------|-------------------|-------------------|-------------------|
D|-------------------|-----------2----2--|-------------------|-------------------|
A|-----------2----2--|--3----3-----------|--2----2---2----2--|--0----0-----------|
E|--3----3-----------|-------------------|-------------------|-----------3----3--|


G|-------------------|--------------|-------|
D|-------------------|--------------|-------|
A|-----------0-------|-----------5--|-------|
E|--1----1--------3--|--2----2------|--5-4--|


G|-------------------|----------------------|-------------------|-------------------|
D|-------------------|-----------2----------|-------------------|-------------------|
A|-----------2----2--|--3----3-----2--------|--2----2---2----2--|--0----0-----------|
E|--3----3-----------|---------------0---0--|-------------------|-----------3----3--|


G|-------------------|----------------|
D|-------------------|-----------4/5--|
A|-------------------|----------------|
E|--1----1---2----2--|--3----3--------|


   [bridge]
G|---------------------|---------------------|----------|----------|-------------|-------------|
D|---------------------|---------------------|----------|----------|-------------|-------------|
A|--3------3---4----4--|--5------5---6----6--|--6/7-----|--4/5-----|--2/3--------|-------------|
E|-------3-------------|-------5-------------|-------7--|-------5--|-------3--2--|----------2--|


   [verse 3]
G|--------------|--------------|--------------|--------------|--------------|-------------------|
D|--------------|-----------2--|--------------|--------------|--------------|-------------------|
A|-----------2--|--0----0------|--2----2---2--|--0----0---2--|--0----0---2--|-------------------|
E|--3----3------|--------------|--------------|--------------|--------------|--0----0---0----2--|


G|--------------|--------------|--------------|--------------|
D|--------------|-----------2--|--------------|--------------|
A|-----------2--|--0----0------|--2----2---2--|--------------|
E|--3----3------|--------------|--------------|--2--------3--|


G|------------------|------------------|------------------|---------------------|
D|------------------|------------------|------------------|---------------------|
A|------------------|------------------|--3---------------|--2--------3---3--3--|
E|--4--------5---3--|--2--------3---3--|-----------1---1--|---------------------|


G|--------------------------|
D|--------------------------|
A|--2/3-2-0---------3-------|
E|----------3--0--3------2--|


   [verse 4]
G|--------------|--------------|--------------|--------------|--------------|-------------------|
D|--------------|-----------2--|--------------|--------------|--------------|-------------------|
A|-----------2--|--0----0------|--2----2---2--|--0----0---2--|--0----0---2--|-------------------|
E|--3----3------|--------------|--------------|--------------|--------------|--0----0---0----2--|


G|--------------|--------------|--------------|--------------|
D|--------------|-----------2--|--------------|--------------|
A|-----------2--|--0----0------|--2----2---2--|--------------|
E|--3----3------|--------------|--------------|--2--------3--|


G|------------------|------------------|------------------|---------------------|
D|------------------|------------------|------------------|---------------------|
A|------------------|------------------|--3---------------|--2--------3---3--4--|
E|--4--------5---3--|--2--------3---3--|-----------1---1--|---------------------|


G|---------------------------|
D|----------2/4-2------------|
A|--5-------------5----------|
E|------5-----------5--3-2---|


   
G|-------------------|-------------------|-------------------|-------------------|
D|-------------------|-----------2----2--|-------------------|-------------------|
A|-----------2----2--|--3----3-----------|--2----2---2----2--|--0----0-----------|
E|--3----3-----------|-------------------|-------------------|-----------3----3--|


G|-------------------|-----------------|
D|-------------------|--------------7--|
A|-----------0-------|-----------5-----|
E|--1----1--------3--|--2----2---------|


G|-------------------|----------------------|-------------------|-------------------|
D|-------------------|-----------2----------|-------------------|-------------------|
A|-----------2----2--|--3----3-----2--------|--2----2---2----2--|--0----0-----------|
E|--3----3-----------|---------------0---0--|-------------------|-----------3----3--|


G|-------------------|
D|-------------------|
A|-------------------|
E|--1----1---2----2--|


G|-------------------|----------------------|-------------------|-------------------|
D|-------------------|-----------2----------|-------------------|-------------------|
A|-----------2----2--|--3----3-----2--------|--2----2---2----2--|--0----0-----------|
E|--3----3-----------|---------------0---0--|-------------------|-----------3----3--|


G|-------------------|---------------------|
D|-------------------|---------------------|
A|-----------0-------|-----------5---------|
E|--1----1--------3--|--2----2-------5--2--|


G|-------------------|-------------------|-------------------|-------------------|
D|-------------------|--1----1---2----2--|-------------------|-------------------|
A|-----------2----2--|-------------------|--2----2---2----2--|--0----0-----------|
E|--3----3-----------|-------------------|-------------------|-----------3----3--|


G|-------------------|
D|-------------------|
A|-------------------|
E|--1----1---2----2--|


   [outro]
G|-------------|---------------------|
D|-------------|---------------------|
A|-------.-----|------.--------.-----|
E|--5---/7--8--|--7---5--7-8---7--5--|



****************

/ : slide up
. : staccato

****************


in regular sequence !

            
            
Suggest correction
Creating personal tab
Creating personal tab
You can edit any tab online and save it as your Personal.

You can edit, replace or remove any tab part or add personal notes – all changes will be seen only by you.

Personal tabs can be accessed anytime from any device, even offline.
Learn more »
Give kudos to tab author, rate the tab!
1 2 3 4 5
comments
print report bad tab
guest
You may want to rate the tab now too:
select rating
Wanna post a correction for this tab? Suggest correction