Oops, an error
Loading. Please wait.

A Storm Is Coming tab

version 1
version 1

Whole song

Interactive

100 views 1 this week
no commentswrite comment
1 2 3 4 5
3 more votes to show rating
add to favorites
×
Save as Personal and add changes to this tab that will be seen only by you. Learn more ›
×
You can save this tab as Personal to edit and correct it or add notes. All changes will be seen only by you. Learn more »
launch autoscroll
font size
0
reset
how to read this tab
guitar tuner
edit
Autoscroll
slow
fast
+/-
esc
set tempo
stop
Author
Difficulty
The song's solos which are played by Carl Barât differ from one live show to another so you can play it
any other way. Strunming paterns of some parts can be played different as well.

guitar 1 - rhythm guitar 
guitar 2 - lead guitar 

[Intro]

Both guitars
e|----------------------------------------------------------------------------------------------------------3|
B|----------------------------------------------------------------------------------------------------------3|
G|---------8---------------8-8--8--\-------3-----------3-3-3-/---------8---------------8-8--8--/-------3----3|
D|------10---10---------10---10-10-\-----5---5-------5---5-5-/------10---10---------10---10-10-/-----5---5--5|
A|---10---------10---10------10-10-\---5-------5---5-----5-5-/---10---------10---10------10-10-/---5--------5|
E|-8---------------8---------8--8--\-3-----------3-------3-3-/-8---------------8---------8--8--/-3----------3|


Guitar 1
e|-----------------------------------------------------------------------------------------------------------|
B|-----------------------------------------------------------------------------------------------------------|
G|-8--8--8--8--------------7--7--7--7--------------8--8--8--8------------------------------------------------|
D|-8--8--8--8--8--8--8--8--7--7--7--7--5--5--5--5--8--8--8--8--8--8--8--8--3--3-3--3-3-3--3--3-3--3-3-3------|
A|-6--6--6--6--8--8--8--8--5--5--5--5--5--5--5--5--6--6--6--6--8--8--8--8--3--3-3--3-3-3--3--3-3--3-3-3------|
E|-------------6--6--6--6--------------3--3--3--3--------------6--6--6--6--1--1-1--1-1-1--1--1-1--1-1-1------|
  in this part and in parts below the band plays power chords but full chords would sound good as well


Guitar 2
e|-------------------------------------------------------------------------------------------------|
B|-------------------------------------------------------------------------------------------------|
G|--------------------3--5--5-3-5-3------------3-5-3-----------3-5-3-5--7-7-8-8-10-10-12-14-15-17~-|
D|-----------3----3-5---------------5-5-3--3-5-------5-3-5-3-5-------------------------------------|
A|-------3-5----5----------------------------------------------------------------------------------|
E|1-3--5-------------------------------------------------------------------------------------------|
  this part may vary as mentioned before


[Verse 1]

Guitar 1 or both guitars
e|----------------------------------------------------------------------------|
B|----------------------------------------------------------------------------|
G|----------------------------10-x-10-10-xx--10-x-10-10-xx--------------------|
D|-10-x-10-10-xx--8-x-8-8-xx--10-x-10-10-xx--10-x-10-10-xx--------------------|x3
A|-10-x-10-10-xx--8-x-8-8-xx--8--x-8--8--xx--8--x-8--8--xx--------------------|
E|-8--x-8--8--xx--6-x-6-6-xx--------------------------------------------------|

e|---------------------------------------------------------------------------|
B|---------------------------------------------------------------------------|
G|----------------------------10-x-10-10-xx-10-10-10-10-10-10-10\------------|
D|-10-x-10-10-xx--8-x-8-8-xx--10-x-10-10-xx-10-10-10-10-10-10-10\------------|
A|-10-x-10-10-xx--8-x-8-8-xx--8--x-8--8--xx-8--8--8--8--8--8--8-\------------|
E|-8--x-8--8--xx--6-x-6-6-xx-------------------------------------------------|


[Chorus 1]

Guitar 1
e|--------------------------------------------------------------------------------------------------|
B|--------------------------------------------------------------------------------------------------|
G|-8-8-8-8---------7-7-7-7-12-12-12-12-8-8-8-8---------7--7-7--7-7-7-12-12-12-12-12-12-12-12--------|
D|-8-8-8-8-8-8-8-8-7-7-7-7-12-12-12-12-8-8-8-8-8-8-8-8-7--7-7--7-7-7-12-12-12-12-12-12-12-12--------|
A|-6-6-6-6-8-8-8-8-5-5-5-5-10-10-10-10-6-6-6-6-8-8-8-8-5--5-5--5-5-5-10-10-10-10-10-10-10-10--------|
E|---------6-6-6-6-----------------------------6-6-6-6----------------------------------------------|

e|--------------------------------------------------------------------------------------------------|
B|--------------------------------------------------------------------------------------------------|
G|-8-8-8-8---------7-7-7-7-12-12-12-12-8-8-8-8---------10-10-10-10-10-10-10-10-10-10-10-10-10-10-10-|
D|-8-8-8-8-8-8-8-8-7-7-7-7-12-12-12-12-8-8-8-8-8-8-8-8-10-10-10-10-10-10-10-10-10-10-10-10-10-10-10-|
A|-6-6-6-6-8-8-8-8-5-5-5-5-10-10-10-10-6-6-6-6-8-8-8-8-8--8--8--8--8--8--8--8--8--8--8--8--8--8--8--|
E|---------6-6-6-6-----------------------------6-6-6-6----------------------------------------------|


Guitar 2
e|---------------------------------------------------------------------------------|
B|---------------------------------------------------------------------------------|
G|-8-8-8-8---------7-7-7-7---------8-8-8-8---------7--7-7--7-7-7-------------------|
D|-8-8-8-8-8-8-8-8-7-7-7-7-5-5-5-5-8-8-8-8-8-8-8-8-7--7-7--7-7-7-3-3-3-3-3-3-3-3---|
A|-6-6-6-6-8-8-8-8-5-5-5-5-5-5-5-5-6-6-6-6-8-8-8-8-5--5-5--5-5-5-3-3-3-3-3-3-3-3---|
E|---------6-6-6-6---------3-3-3-3---------6-6-6-6---------------1-1-1-1-1-1-1-1---|

e|---------------------------------------------------------------------------------|
B|---------------------------------------------------------------------------------|
G|-8-8-8-8---------7-7-7-7---------8-8-8-8-----------------------------------------|
D|-8-8-8-8-8-8-8-8-7-7-7-7-5-5-5-5-8-8-8-8-8-8-8-8--3-3-3-3-3-3-3-3-3-3-3-3-3-3-3--|
A|-6-6-6-6-8-8-8-8-5-5-5-5-5-5-5-5-6-6-6-6-8-8-8-8--3-3-3-3-3-3-3-3-3-3-3-3-3-3-3--|
E|---------6-6-6-6---------3-3-3-3---------6-6-6-6--1-1-1-1-1-1-1-1-1-1-1-1-1-1-1--|


[Verse 2]

Guitar 1 or both guitars
e|----------------------------------------------------------------------------|
B|----------------------------------------------------------------------------|
G|----------------------------10-x-10-10-xx--10-x-10-10-xx--------------------|
D|-10-x-10-10-xx--8-x-8-8-xx--10-x-10-10-xx--10-x-10-10-xx--------------------|x3
A|-10-x-10-10-xx--8-x-8-8-xx--8--x-8--8--xx--8--x-8--8--xx--------------------|
E|-8--x-8--8--xx--6-x-6-6-xx--------------------------------------------------|

e|---------------------------------------------------------------------------|
B|---------------------------------------------------------------------------|
G|----------------------------10-x-10-10-xx-10-10-10-10-10-10-10\------------|
D|-10-x-10-10-xx--8-x-8-8-xx--10-x-10-10-xx-10-10-10-10-10-10-10\------------|
A|-10-x-10-10-xx--8-x-8-8-xx--8--x-8--8--xx-8--8--8--8--8--8--8-\------------|
E|-8--x-8--8--xx--6-x-6-6-xx-------------------------------------------------|


[Chorus 2]

Guitar 1
e|--------------------------------------------------------------------------------------------------|
B|--------------------------------------------------------------------------------------------------|
G|-8-8-8-8---------7-7-7-7-12-12-12-12-8-8-8-8---------7--7-7--7-7-7-12-12-12-12-12-12-12-12--------|
D|-8-8-8-8-8-8-8-8-7-7-7-7-12-12-12-12-8-8-8-8-8-8-8-8-7--7-7--7-7-7-12-12-12-12-12-12-12-12--------|
A|-6-6-6-6-8-8-8-8-5-5-5-5-10-10-10-10-6-6-6-6-8-8-8-8-5--5-5--5-5-5-10-10-10-10-10-10-10-10--------|
E|---------6-6-6-6-----------------------------6-6-6-6----------------------------------------------|

e|--------------------------------------------------------------------------------------------------|
B|--------------------------------------------------------------------------------------------------|
G|-8-8-8-8---------7-7-7-7-12-12-12-12-8-8-8-8---------10-10-10-10-10-10-10-10-10-10-10-10-10-10-10-|
D|-8-8-8-8-8-8-8-8-7-7-7-7-12-12-12-12-8-8-8-8-8-8-8-8-10-10-10-10-10-10-10-10-10-10-10-10-10-10-10-|
A|-6-6-6-6-8-8-8-8-5-5-5-5-10-10-10-10-6-6-6-6-8-8-8-8-8--8--8--8--8--8--8--8--8--8--8--8--8--8--8--|
E|---------6-6-6-6-----------------------------6-6-6-6----------------------------------------------|


Guitar 2
e|---------------------------------------------------------------------------------|
B|---------------------------------------------------------------------------------|
G|-8-8-8-8---------7-7-7-7---------8-8-8-8---------7--7-7--7-7-7-------------------|
D|-8-8-8-8-8-8-8-8-7-7-7-7-5-5-5-5-8-8-8-8-8-8-8-8-7--7-7--7-7-7-3-3-3-3-3-3-3-3---|
A|-6-6-6-6-8-8-8-8-5-5-5-5-5-5-5-5-6-6-6-6-8-8-8-8-5--5-5--5-5-5-3-3-3-3-3-3-3-3---|
E|---------6-6-6-6---------3-3-3-3---------6-6-6-6---------------1-1-1-1-1-1-1-1---|

e|---------------------------------------------------------------------------------|
B|---------------------------------------------------------------------------------|
G|-8-8-8-8---------7-7-7-7---------8-8-8-8-----------------------------------------|
D|-8-8-8-8-8-8-8-8-7-7-7-7-5-5-5-5-8-8-8-8-8-8-8-8--3-3-3-3-3-3-3-3-3-3-3-3-3-3-3--|
A|-6-6-6-6-8-8-8-8-5-5-5-5-5-5-5-5-6-6-6-6-8-8-8-8--3-3-3-3-3-3-3-3-3-3-3-3-3-3-3--|
E|---------6-6-6-6---------3-3-3-3---------6-6-6-6--1-1-1-1-1-1-1-1-1-1-1-1-1-1-1--|


[Solo part]

Guitar 1
e|---------------------------------------------------------------------------|
B|---------------------------------------------------------------------------|
G|---------------------------------------------------------------------------|
D|-----------8--10--8--8~---/---10-/-12--------------------------------------|x3
A|-8--10--8------------------------------------------------------------------|
E|---------------------------------------------------------------------------|

e|---------------------------------------------------------------------------|
B|---------------------10-10-10-10-10-10-10-10-12-12-12-12-12-12-12-12-------|
G|---------------------10-10-10-10-10-10-10-10-12-12-12-12-12-12-12-12-------|
D|-----------8--10--8--8--8--8--8--8--8--8--8--10-10-10-10-10-10-10-10-------|
A|-8--10--8------------------------------------------------------------------|
E|---------------------------------------------------------------------------|


Guitar 2
e|-------------------------------------------------------------------------------------------|
B|-------------------------------------------------------------------------------------------|
G|------------8--8br10-8--7--8--10~----------------------8--8br10-8--7--5--3--3-3-3-3-3-3-3-3|
D|-8--8br10-----------------------------------8--8br10---------------------------------------|
A|-------------------------------------------------------------------------------------------|
E|-------------------------------------------------------------------------------------------|

e|-------------------------------------------------------------------------------------------------------|
B|-------------------------------------------------------------------------------------------------------|
G|------------8--8-br10-8--7--8--10-8-10-8-10-8-10--------------------8--8-br10-8--7-8-10-12-13-14-15br17|
D|-8--8-br10-----------------------------------------------8--8-br10-------------------------------------|
A|-------------------------------------------------------------------------------------------------------|
E|-------------------------------------------------------------------------------------------------------|
   at this part the strumming is constant even at bends


[Chorus 3]

Guitar 1
e|--------------------------------------------------------------------------------------------------|
B|--------------------------------------------------------------------------------------------------|
G|-8-8-8-8---------7-7-7-7-12-12-12-12-8-8-8-8---------7--7-7--7-7-7-12-12-12-12-12-12-12-12--------|
D|-8-8-8-8-8-8-8-8-7-7-7-7-12-12-12-12-8-8-8-8-8-8-8-8-7--7-7--7-7-7-12-12-12-12-12-12-12-12--------|
A|-6-6-6-6-8-8-8-8-5-5-5-5-10-10-10-10-6-6-6-6-8-8-8-8-5--5-5--5-5-5-10-10-10-10-10-10-10-10--------|
E|---------6-6-6-6-----------------------------6-6-6-6----------------------------------------------|

e|--------------------------------------------------------------------------------------------------|
B|--------------------------------------------------------------------------------------------------|
G|-8-8-8-8---------7-7-7-7-12-12-12-12-8-8-8-8---------10-10-10-10-10-10-10-10-10-10-10-10-10-10-10-|
D|-8-8-8-8-8-8-8-8-7-7-7-7-12-12-12-12-8-8-8-8-8-8-8-8-10-10-10-10-10-10-10-10-10-10-10-10-10-10-10-|
A|-6-6-6-6-8-8-8-8-5-5-5-5-10-10-10-10-6-6-6-6-8-8-8-8-8--8--8--8--8--8--8--8--8--8--8--8--8--8--8--|
E|---------6-6-6-6-----------------------------6-6-6-6----------------------------------------------|


Guitar 2
e|---------------------------------------------------------------------------------|
B|---------------------------------------------------------------------------------|
G|-8-8-8-8---------7-7-7-7---------8-8-8-8---------7--7-7--7-7-7-------------------|
D|-8-8-8-8-8-8-8-8-7-7-7-7-5-5-5-5-8-8-8-8-8-8-8-8-7--7-7--7-7-7-3-3-3-3-3-3-3-3---|
A|-6-6-6-6-8-8-8-8-5-5-5-5-5-5-5-5-6-6-6-6-8-8-8-8-5--5-5--5-5-5-3-3-3-3-3-3-3-3---|
E|---------6-6-6-6---------3-3-3-3---------6-6-6-6---------------1-1-1-1-1-1-1-1---|

e|---------------------------------------------------------------------------------|
B|---------------------------------------------------------------------------------|
G|-8-8-8-8---------7-7-7-7---------8-8-8-8-----------------------------------------|
D|-8-8-8-8-8-8-8-8-7-7-7-7-5-5-5-5-8-8-8-8-8-8-8-8--3-3-3-3-3-3-3-3-3-3-3-3-3-3-3--|
A|-6-6-6-6-8-8-8-8-5-5-5-5-5-5-5-5-6-6-6-6-8-8-8-8--3-3-3-3-3-3-3-3-3-3-3-3-3-3-3--|
E|---------6-6-6-6---------3-3-3-3---------6-6-6-6--1-1-1-1-1-1-1-1-1-1-1-1-1-1-1--|


[Chorus 4]

Guitar 1
e|--------------------------------------------------------------------------------------------------|
B|--------------------------------------------------------------------------------------------------|
G|-8-8-8-8---------7-7-7-7-12-12-12-12-8-8-8-8---------7--7-7--7-7-7-12-12-12-12-12-12-12-12--------|
D|-8-8-8-8-8-8-8-8-7-7-7-7-12-12-12-12-8-8-8-8-8-8-8-8-7--7-7--7-7-7-12-12-12-12-12-12-12-12--------|
A|-6-6-6-6-8-8-8-8-5-5-5-5-10-10-10-10-6-6-6-6-8-8-8-8-5--5-5--5-5-5-10-10-10-10-10-10-10-10--------|
E|---------6-6-6-6-----------------------------6-6-6-6----------------------------------------------|

e|--------------------------------------------------------------------------------------------------|
B|--------------------------------------------------------------------------------------------------|
G|-8-8-8-8---------7-7-7-7-12-12-12-12-8-8-8-8---------10-10-10-10-10-10-10-10-10-10-10-10-10-10-10-|
D|-8-8-8-8-8-8-8-8-7-7-7-7-12-12-12-12-8-8-8-8-8-8-8-8-10-10-10-10-10-10-10-10-10-10-10-10-10-10-10-|
A|-6-6-6-6-8-8-8-8-5-5-5-5-10-10-10-10-6-6-6-6-8-8-8-8-8--8--8--8--8--8--8--8--8--8--8--8--8--8--8--|
E|---------6-6-6-6-----------------------------6-6-6-6----------------------------------------------|


Guitar 2
e|---------------------------------------------------------------------------------|
B|---------------------------------------------------------------------------------|
G|-8-8-8-8---------7-7-7-7---------8-8-8-8---------7--7-7--7-7-7-------------------|
D|-8-8-8-8-8-8-8-8-7-7-7-7-5-5-5-5-8-8-8-8-8-8-8-8-7--7-7--7-7-7-3-3-3-3-3-3-3-3---|
A|-6-6-6-6-8-8-8-8-5-5-5-5-5-5-5-5-6-6-6-6-8-8-8-8-5--5-5--5-5-5-3-3-3-3-3-3-3-3---|
E|---------6-6-6-6---------3-3-3-3---------6-6-6-6---------------1-1-1-1-1-1-1-1---|

e|---------------------------------------------------------------------------------|
B|---------------------------------------------------------------------------------|
G|-8-8-8-8---------7-7-7-7---------8-8-8-8-----------------------------------------|
D|-8-8-8-8-8-8-8-8-7-7-7-7-5-5-5-5-8-8-8-8-8-8-8-8--3-3-3-3-3-3-3-3-3-3-3-3-3-3-3--|
A|-6-6-6-6-8-8-8-8-5-5-5-5-5-5-5-5-6-6-6-6-8-8-8-8--3-3-3-3-3-3-3-3-3-3-3-3-3-3-3--|
E|---------6-6-6-6---------3-3-3-3---------6-6-6-6--1-1-1-1-1-1-1-1-1-1-1-1-1-1-1--|


[Outro]

played by one guitar
e|-------------------------------|
B|---------8---------------------|
G|-----------8------8------------|
D|------10------------10-10-\-5--|
A|---10----------10---10-10-\-5--|
E|-8-----------8------8--8--\-3--|


************************************

| x   Dead note
| br  Bend release
| /   Slide up
| \   Slide down
| ~   Vibrato

************************************

            
            
Suggest correction
Creating personal tab
Creating personal tab
You can edit any tab online and save it as your Personal.

You can edit, replace or remove any tab part or add personal notes – all changes will be seen only by you.

Personal tabs can be accessed anytime from any device, even offline.
Learn more »
Give kudos to tab author, rate the tab!
1 2 3 4 5
comments
print report bad tab
guest
You may want to rate the tab now too:
select rating
Wanna post a correction for this tab? Suggest correction