Oops, an error
Loading. Please wait.

유리 bass

52 views 1 this week
no commentswrite comment
1 2 3 4 5
3 more votes to show rating
add to favorites
×
Save as Personal and add changes to this tab that will be seen only by you. Learn more ›
×
You can save this tab as Personal to edit and correct it or add notes. All changes will be seen only by you. Learn more »
launch autoscroll
font size
0
reset
guitar tuner
edit
Autoscroll
slow
fast
+/-
esc
set tempo
stop
Author
Difficulty
[Intro]

G|-------|-------------------|-------------------|-------------------|
D|--12\--|--------------7-9--|--------------7-9--|--------------7-9--|
A|-------|--5-5-5-5-5-5------|--5-5-5-5-5-5------|--5-5-5-5-5-5------|
E|-------|-------------------|-------------------|-------------------|

G|-------------------|-------------------|-------------------|
D|--5-5-5-5-5-5-4-2--|--5-5-5-5-5-5-4-2--|--4-4-4-4----------|
A|-------------------|-------------------|----------5-5-5-5--|
E|-------------------|-------------------|-------------------|

G|-------------------|-------------------|
D|--2-2-2-2----------|--------------2-2--|
A|-------------------|------2-2-4-4------|
E|----------3-3-3-3--|--5-5--------------|


[Verse 1]

G|-------------------|-------------------|--------------------|---------------------------|
D|--------------7----|--------------7-7--|--------------------|---------------------------|
A|--5-5-5-5-5-5---9--|-------------------|--------------10-9--|--10-10-10-10-10-10-10-10--|
E|-------------------|--9-9-9-9-9-9------|--8-8-8-8-8-8-------|---------------------------|

G|-------------------|-----------------------|-------------------|-------------------|
D|-------------------|-----------------------|-------------------|-------------------|
A|--------------9-7--|--9-9-9-9--------------|--7-7-7-7-7-7-9-9--|-------------------|
E|--6-6-6-6-6-6------|----------10-10-10-10--|-------------------|--5-5-5-5-5-5-5-5--|


G|-------------------|-------------------|--------------------|---------------------------|
D|--------------7----|--------------7-7--|--------------------|---------------------------|
A|--5-5-5-5-5-5---9--|-------------------|--------------10-9--|--10-10-10-10-10-10-10-10--|
E|-------------------|--9-9-9-9-9-9------|--8-8-8-8-8-8-------|---------------------------|

G|-------------------|-----------------------|-------------------|-------------------|
D|-------------------|-----------------------|-------------------|-------------------|
A|--------------9-7--|--9-9-9-9--------------|--7-7-7-7-7-7-9-9--|-------------------|
E|--6-6-6-6-6-6------|----------10-10-10-10--|-------------------|--5-5-5-5-5-5-5-5--|


[Chorus]

G|-------------------|-------------------|-------------------|
D|--------------7-9--|--------------7-9--|--------------7-9--|
A|--5-5-5-5-5-5------|--5-5-5-5-5-5------|--5-5-5-5-5-5------|
E|-------------------|-------------------|-------------------|

G|-------------------|-------------------|-------------------|
D|--5-5-5-5-5-5-4-2--|--5-5-5-5-5-5-4-2--|--4-4-4-4----------|
A|-------------------|-------------------|----------5-5-5-5--|
E|-------------------|-------------------|-------------------|

G|-------------------|-------------------|
D|--2-2-2-2----------|--------------2-2--|
A|-------------------|------2-2-4-4------|
E|----------3-3-3-3--|--5-5--------------|


G|-------------------|-------------------|-------------------|
D|--------------7-9--|--------------7-9--|--------------7-9--|
A|--5-5-5-5-5-5------|--5-5-5-5-5-5------|--5-5-5-5-5-5------|
E|-------------------|-------------------|-------------------|

G|-------------------|-------------------|-------------------|
D|--5-5-5-5-5-5-4-2--|--5-5-5-5-5-5-4-2--|--4-4-4-4----------|
A|-------------------|-------------------|----------5-5-5-5--|
E|-------------------|-------------------|-------------------|

G|-------------------|-------------------|
D|--2-2-2-2----------|--------------2-2--|
A|-------------------|------2-2-4-4------|
E|----------3-3-3-3--|--5-5--------------|


[Bridge]

G|-----|-----|-----|-----|-----|-----|-----|--------------|
D|-----|-----|-----|-----|-----|-----|-----|--------------|
A|--5--|--5--|-----|-----|--5--|--3--|-----|--------------|
E|-----|-----|--3--|--3--|-----|-----|--3--|--3--5--6--5--|


[Instrumental]

G|-------------------|-------------------|-------------------|
D|--------------7-9--|--------------7-9--|--------------7-9--|
A|--5-5-5-5-5-5------|--5-5-5-5-5-5------|--5-5-5-5-5-5------|
E|-------------------|-------------------|-------------------|

G|-------------------|-------------------|-------------------|
D|--5-5-5-5-5-5-4-2--|--5-5-5-5-5-5-4-2--|--4-4-4-4----------|
A|-------------------|-------------------|----------5-5-5-5--|
E|-------------------|-------------------|-------------------|

G|-------------------|-------------------|
D|--2-2-2-2----------|--------------2-2--|
A|-------------------|------2-2-4-4------|
E|----------3-3-3-3--|--5-5--------------|


[Verse 2]

G|-------------------|-------------------|--------------------|---------------------------|
D|--------------7----|--------------7-7--|--------------------|---------------------------|
A|--5-5-5-5-5-5---9--|-------------------|--------------10-9--|--10-10-10-10-10-10-10-10--|
E|-------------------|--9-9-9-9-9-9------|--8-8-8-8-8-8-------|---------------------------|

G|-------------------|-----------------------|-------------------|-------------------|
D|-------------------|-----------------------|-------------------|-------------------|
A|--------------9-7--|--9-9-9-9--------------|--7-7-7-7-7-7-9-9--|-------------------|
E|--6-6-6-6-6-6------|----------10-10-10-10--|-------------------|--5-5-5-5-5-5-5-5--|


G|-------------------|-------------------|--------------------|---------------------------|
D|--------------7----|--------------7-7--|--------------------|---------------------------|
A|--5-5-5-5-5-5---9--|-------------------|--------------10-9--|--10-10-10-10-10-10-10-10--|
E|-------------------|--9-9-9-9-9-9------|--8-8-8-8-8-8-------|---------------------------|

G|-------------------|-----------------------|-------------------|-------------------|
D|-------------------|-----------------------|-------------------|-------------------|
A|--------------9-7--|--9-9-9-9--------------|--7-7-7-7-7-7-9-9--|-------------------|
E|--6-6-6-6-6-6------|----------10-10-10-10--|-------------------|--5-5-5-5-5-5-5-5--|


[Chorus]

G|-------------------|-------------------|-------------------|
D|--------------7-9--|--------------7-9--|--------------7-9--|
A|--5-5-5-5-5-5------|--5-5-5-5-5-5------|--5-5-5-5-5-5------|
E|-------------------|-------------------|-------------------|

G|-------------------|-------------------|-------------------|
D|--5-5-5-5-5-5-4-2--|--5-5-5-5-5-5-4-2--|--4-4-4-4----------|
A|-------------------|-------------------|----------5-5-5-5--|
E|-------------------|-------------------|-------------------|

G|-------------------|-------------------|
D|--2-2-2-2----------|--------------2-2--|
A|-------------------|------2-2-4-4------|
E|----------3-3-3-3--|--5-5--------------|


G|-------------------|-------------------|-------------------|
D|--------------7-9--|--------------7-9--|--------------7-9--|
A|--5-5-5-5-5-5------|--5-5-5-5-5-5------|--5-5-5-5-5-5------|
E|-------------------|-------------------|-------------------|

G|-------------------|-------------------|-------------------|
D|--5-5-5-5-5-5-4-2--|--5-5-5-5-5-5-4-2--|--4-4-4-4----------|
A|-------------------|-------------------|----------5-5-5-5--|
E|-------------------|-------------------|-------------------|

G|-------------------|-------------------|
D|--2-2-2-2----------|--------------2-2--|
A|-------------------|------2-2-4-4------|
E|----------3-3-3-3--|--5-5--------------|


[Bridge]

G|-----|-----|-----|-----|-----|-----|-----|--------------|
D|-----|-----|-----|-----|-----|-----|-----|--------------|
A|--5--|--5--|-----|-----|--5--|--3--|-----|--------------| x2
E|-----|-----|--3--|--3--|-----|-----|--3--|--3--5--6--5--|


[Outro]

G|------7---------7--|-----------------|------7---------7--|--------------------|
D|-------------------|------7-------5--|-------------------|-------5---------5--|
A|--5-------5-5------|-----------------|--5-------5-5------|--------------------|
E|-------------------|--5-------3------|-------------------|---3-------3-3------|


G|------7---------7--|-----------------|------7---------7--|-----|-------|
D|-------------------|------7-------5--|-------------------|-----|--6/7--|
A|--5-------5-5------|-----------------|--5-------5-5------|-----|-------|
E|-------------------|--5-------3------|-------------------|--5--|-------|


************************************

| /  Slide up
| \  Slide down

************************************

            
            
Suggest correction
Creating personal tab
Creating personal tab
You can edit any tab online and save it as your Personal.

You can edit, replace or remove any tab part or add personal notes – all changes will be seen only by you.

Personal tabs can be accessed anytime from any device, even offline.
Learn more »
Give kudos to tab author, rate the tab!
1 2 3 4 5
comments
print report bad tab
guest
You may want to rate the tab now too:
select rating
Wanna post a correction for this tab? Suggest correction