Oops, an error
Loading. Please wait.

Dræm Girl tab

6,379 views 123 this week
10 commentsread comments
1 2 3 4 5
x 11
add to favorites
×
Save as Personal and add changes to this tab that will be seen only by you. Learn more ›
×
You can save this tab as Personal to edit and correct it or add notes. All changes will be seen only by you. Learn more »
launch autoscroll
font size
0
reset
how to read this tab
guitar tuner
edit
Autoscroll
slow
fast
+/-
esc
set tempo
stop
Author
[Intro]  

e|---2--2--2-2--2---2--2--2--2-2---0--0--0-0--0---0--0--0--0-0|
B|---3--3--3-3--3---3--3--3--3-3---0--0--0-0--0---2--2--2--2-2|
G|---2--2--2-2--2---4--4--4--4-4---0--0--0-0--0---2--2--2--2-2| 
D|---0--0--0-0--0---4--4--4--4-4---2--2--2-2--2---2--2--2--2-2| x4
A|---0--0--0-0--0---2--2--2--2-2---2--2--2-2--2---0--0--0--0-0|
E|---0--0--0-0--0---2--2--2--2-2---0--0--0-0--0---0--0--0--0-0|


[Verse]

e|---2--------2--------0--------0|
B|---3--------3--------0--------2|
G|---2--------4--------0--------2| x4
D|---0--------4--------2--------2|
A|---0--------2--------2--------0|
E|---0--------2--------0--------0|
    when i look at you, i couldn't see myself passing
    though, your room, i only needed her
    when you talked, to me, all i heard was words
    i couldn't say, a thing, i only made it worse
    (all the lyrics i know so far)

        
[Chorus]

e|---2--2--2-2--2---2--2--2--2-2---0--0--0-0--0---0--0--0--0-0|
B|---3--3--3-3--3---3--3--3--3-3---0--0--0-0--0---2--2--2--2-2|
G|---2--2--2-2--2---4--4--4--4-4---0--0--0-0--0---2--2--2--2-2|
D|---0--0--0-0--0---4--4--4--4-4---2--2--2-2--2---2--2--2--2-2| x4
A|---0--0--0-0--0---2--2--2--2-2---2--2--2-2--2---0--0--0--0-0|
E|---0--0--0-0--0---2--2--2--2-2---0--0--0-0--0---0--0--0--0-0|


[Verse]

e|---2--2--2-2--2---2--2--2--2-2---0--0--0-0--0---0--0--0--0-0|
B|---3--3--3-3--3---3--3--3--3-3---0--0--0-0--0---2--2--2--2-2| 
G|---2--2--2-2--2---4--4--4--4-4---0--0--0-0--0---2--2--2--2-2| x4
D|---0--0--0-0--0---4--4--4--4-4---2--2--2-2--2---2--2--2--2-2|
A|---0--0--0-0--0---2--2--2--2-2---2--2--2-2--2---0--0--0--0-0|
E|---0--0--0-0--0---2--2--2--2-2---0--0--0-0--0---0--0--0--0-0|


[Chorus]

e|---2--2--2-2--2---2--2--2--2-2---0--0--0-0--0---0--0--0--0-0|
B|---3--3--3-3--3---3--3--3--3-3---0--0--0-0--0---2--2--2--2-2|
G|---2--2--2-2--2---4--4--4--4-4---0--0--0-0--0---2--2--2--2-2| x2
D|---0--0--0-0--0---4--4--4--4-4---2--2--2-2--2---2--2--2--2-2|
A|---0--0--0-0--0---2--2--2--2-2---2--2--2-2--2---0--0--0--0-0|
E|---0--0--0-0--0---2--2--2--2-2---0--0--0-0--0---0--0--0--0-0|

            
            
Suggest correction
Creating personal tab
Creating personal tab
You can edit any tab online and save it as your Personal.

You can edit, replace or remove any tab part or add personal notes – all changes will be seen only by you.

Personal tabs can be accessed anytime from any device, even offline.
Learn more »
comments
print report bad tab
10 comments total. Showing first comments.
+7 reply
jpnumber123 32 Sep 19, 2016 05:43 PM

I'm making a tab for the lead, will release soon

0 reply
DanteYglesias 10 Feb 12, 2017 06:14 PM

PLEASE PLEASE PLEASE MAKE A TAB FOR THE LEAD THIS SONG IS AMAZING

0 reply
Solid66snake 10 Apr 03, 2017 05:36 PM

👍

guest
You may want to rate the tab now too:
select rating
Wanna post a correction for this tab? Suggest correction