Oops, an error
Loading. Please wait.

Joknaniel - Plasker I Mørket chords

16 views 1 this week
no commentswrite comment
1 2 3 4 5
3 more votes to show rating
add to favorites
×
Save as Personal and add changes to this tab that will be seen only by you. Learn more ›
×
You can save this tab as Personal to edit and correct it or add notes. All changes will be seen only by you. Learn more »
launch autoscroll
font size
0
reset
transpose
0
reset
simplify chords
display chords
guitar tuner
edit
Autoscroll
slow
fast
+/-
esc
set tempo
stop
Author
Strumming
There is no strumming pattern for this song yet. and get +5 IQ
Plasker i Mørket - Joknaniel (2013)

h = hammer on
d = down stroke
u = up stroke

Capo on 5th

Chords (relative to capo):

Gm     - 1xx23x
Cm     - 3x033x
F9     - x3233x
Bb     - 133211
Bbmaj7 - xx3210
Dm     - x02210
Dm7    - x02013
G      - xx0232
G7/B   - 2x0212


Strumming pattern for verse and chorus:

[Verse]

  Gm                       Cm                        F9 (play this section twice)       
     d  u d u    d u   d u   d  u d u    d u    d u     d  u d u      d u     d u      
e|---x--x-x-x----x-x---x-x---x--x-x-x----x-x----x-x-|---x--x-x-x------x-x-----x-x---|
B|---3--3-3-3----3-3---3-3---3--3-3-3----3-3----3-3-|---3--3-3-3------3-3-----3-3---|
G|---2--2-2-2----2-2---2-2---3--3-3-3----3-3----3-3-|---3--3-3-3------3-3-----3-3---|
D|---x--x-x-x----x-x---x-x---0--0-0-0----0-0----0-0-|---2--2-2-2--0h2-2-2-0h2-2-2---|
A|---x--x-x-x----x-x---x-x---x--x-x-x----x-x----x-x-|-3-----------------------------|
E|-1----------0h1-----2-----3---------1h3--- 1h3----|-------------------------------|
                                                                                   

[Chorus]

  Cm                       Gm                        F9 (play this section twice)
     d  u d u    d u   d u   d  u d u    d u     d u     d  u d u      d u     d u      
e|---x--x-x-x----x-x---x-x---x--x-x-x----x-x-----x-x-|---x--x-x-x------x-x-----x-x---|
B|---3--3-3-3----3-3---3-3---3--3-3-3----3-3-----3-3-|---3--3-3-3------3-3-----3-3---|
G|---3--3-3-3----3-3---3-3---2--2-2-2----2-2-----2-2-|---3--3-3-3------3-3-----3-3---|
D|---0--0-0-0----0-0---0-0---x--x-x-x----x-x-----x-x-|---2--2-2-2--0h2-2-2-----2-2---|
A|---x--x-x-x----x-x---x-x---x--x-x-x----x-x--1--x-x-|-3--------------------1--------|
E|-3----------1h3-----2-----1---------0h1------------|-------------------------------|


Song:


[Intro]

Gm Cm F9


[Verse]

Gm                       Cm
Hvor vi bor har vi ingen strøm
          F9
Lever den grønne drøm
Gm                           Cm
Her hos os har vi ikke noget lys
              F9   
Apparaterne er mekaniskeeeee


[Chorus]

Cm       Gm F9
Så mørkt på toilettet
Cm                    Gm    F9
Når vi tisser går det let i vasken

[Interlude with accordion]

Bb Dm G
Bbmaj7 Dm7 G7/B


[Verse]

Gm                       Cm
I vores bil er der ingen larm
                F9
Skubber den med vores arm
Gm                      Cm
Velkommen til vores stuebål
            F9
Vi skal ha' røget ååål (Igen! (på Finsk-Svensk))


[Chorus]

Cm       Gm F9
Så mørkt på toilettet
Cm                    Gm    F9
Når vi tisser går det let i vasken

[Guitar solo]

Cm Gm F9
Cm Gm F9


[Chorus]

Cm       Gm F9
Så mørkt på toilettet
Cm                    Gm    F9
Når vi tisser går det let i vasken

Ends on F9


Tabbed by Slemmemis

            
            
Suggest correction
Creating personal tab
Creating personal tab
You can edit any tab online and save it as your Personal.

You can edit, replace or remove any tab part or add personal notes – all changes will be seen only by you.

Personal tabs can be accessed anytime from any device, even offline.
Learn more »
Give kudos to tab author, rate the tab!
1 2 3 4 5
comments
print report bad tab
guest
You may want to rate the tab now too:
select rating
Wanna post a correction for this tab? Suggest correction