Oops, an error
Loading. Please wait.

すこしだけやさしく bass

46 views 1 this week
no commentswrite comment
1 2 3 4 5
3 more votes to show rating
add to favorites
×
Save as Personal and add changes to this tab that will be seen only by you. Learn more ›
×
You can save this tab as Personal to edit and correct it or add notes. All changes will be seen only by you. Learn more »
launch autoscroll
font size
0
reset
guitar tuner
edit
Autoscroll
slow
fast
+/-
esc
set tempo
stop
Author
Difficulty
Song : https://www.youtube.com/watch?v=IyzDwjG4A0U


[Intro]

G|----------------8--|
D|--8---10---11------|
A|-------------------|
E|-------------------|


[Chorus]

G|----------------|--------------5--|--------------6--|-----------------|
D|--6-----6----6--|------------5----|------------6----|--6-----6--------|
A|-----6-----6----|--3-----3--3-----|--4-----4--4-----|-----6----6-3----|
E|----------------|-----3-----------|-----4-----------|--------------4--|


G|----------------|----------------|----------------|-----------------|
D|----------------|--6--5--3----3--|----------------|--1-----1-1-3-5--|
A|--4-----4----4--|-----------3----|--1-----1----1--|-----1-----------|
E|-----4-----4----|----------------|-----1-----1----|-----------------|


G|----------------|--------------5--|------------------|-----------------|
D|--6-----6----6--|------------5----|------------------|--6-----6--------|
A|-----6-----6----|--3-----3--3-----|--4-----4--4--4---|-----6----6-3----|
E|----------------|-----3-----------|-----4------4-----|--------------4--|


G|----------------|-----------------|-----------------|----------------|
D|-----3--1--3-5--|--6--5--3--------|-----------------|------2---2-----|
A|--1-------------|----------3------|--1----1-3----3--|--4-------------|
E|----------------|------------4-1--|-----1------3----|-------------4--|


[Verse 1]

G|----------------|----------------|----------------|-----------------|
D|--6-----6----6--|--6-----6----6--|--8-----8----8--|-----------------|
A|-----6-----6----|-----6-----6----|-----8-----8----|--6-----6-6---6--|
E|----------------|----------------|----------------|-----6------6----|


G|----------------|----------------|----------------|-----------------|
D|----------------|----------------|----------------|--1-----1-1------|
A|--4-----4----4--|--3-----3----3--|--1-----1----1--|-----1------1-4--|
E|-----4-----4----|-----3-----3----|-----1-----1----|-----------------|


G|----------------|----------------|----------------|-----------------|
D|----------------|--3-----3----3--|----------------|--3-----3-3------|
A|--3-----3----3--|-----3-----3----|--3-----3----3--|-----3------3----|
E|-----3-----3----|----------------|-----3-----3----|--------------4--|


G|----------------|-----------------|-----------------|-------------7/8--|------------------|
D|----------------|-----------------|-----------------|------------------|------------------|
A|--1-----1----1--|--3-----3---1-3--|--4-----4---1-4--|--6--6--6--6------|------------------|
E|-----1-----1----|-----3----3------|-----4----4------|------------------|---9-9-9-8-8-8-8--|


[Bridge]

G|-----------------3/5----------------------|
D|------------------------------------8-----|
A|--8------\------------6-------6--------6--|
E|-----------1------------------------------|


G|-------------------------------|-------------------|------------------|
D|------------------11--11--11\--|-------------------|------------------|
A|--4----4----4----/-------------|--3-3-3-3-3-3-3-3--|---6-6-6-6-6-6-6--|
E|-------------------------------|-------------------|------------------|


[Chorus]

G|----------------|--------------5--|--------------6--|-----------------|
D|--6-----6----6--|------------5----|------------6----|--6-----6--------|
A|-----6-----6----|--3-----3--3-----|--4-----4--4-----|-----6----6-3----|
E|----------------|-----3-----------|-----4-----------|--------------4--|


G|----------------|----------------|----------------|-----------------|
D|----------------|--6--5--3----3--|----------------|--1-----1-1-3-5--|
A|--4-----4----4--|-----------3----|--1-----1----1--|-----1-----------|
E|-----4-----4----|----------------|-----1-----1----|-----------------|


G|----------------|--------------5--|--------------6--|-----------------|
D|--6-----6----6--|------------5----|------------6----|--6-----6--------|
A|-----6-----6----|--3-----3--3-----|--4-----4--4-----|-----6----6-3----|
E|----------------|-----3-----------|-----4-----------|--------------4--|


G|----------------|-----------------|-----------------|-----8-9---9\----|
D|-----3--1--3-5--|--6--5--3--------|-----------------|-----------------|
A|--1-------------|----------3------|--1----1-3----3--|--4--------------|
E|----------------|------------4-1--|-----1------3----|--------------4--|


G|----------------|-----------------|-------------------|
D|------2---2-----|-----------------|--------------13\--|
A|--4-------------|------(rest)-----|-------------------|
E|-------------4--|-----------------|-------------------|


[Verse 2]

G|----------------|----------------|----------------|-----------------|
D|--6-----6----6--|--6-----6----6--|--8-----8----8--|-----------------|
A|-----6-----6----|-----6-----6----|-----8-----8----|--6-----6-6---6--|
E|----------------|----------------|----------------|-----6------6----|


G|----------------|----------------|----------------|-----------------|
D|----------------|----------------|----------------|--1-----1-1------|
A|--4-----4----4--|--3-----3----3--|--1-----1----1--|-----1------1-4--|
E|-----4-----4----|-----3-----3----|-----1-----1----|-----------------|


G|----------------|----------------|----------------|-----------------|
D|----------------|--3-----3----3--|----------------|--3-----3-3------|
A|--3-----3----3--|-----3-----3----|--3-----3----3--|-----3------3----|
E|-----3-----3----|----------------|-----3-----3----|--------------4--|


G|----------------|-----------------|-----------------|-------------7/8--|------------------|
D|----------------|-----------------|-----------------|------------------|------------------|
A|--1-----1----1--|--3-----3---1-3--|--4-----4---1-4--|--6--6--6--6------|------------------|
E|-----1-----1----|-----3----3------|-----4----4------|------------------|---9-9-9-8-8-8-8--|


[Bridge]

G|-----------------3/5----------------------|
D|------------------------------------8-----|
A|--8------\------------6-------6--------6--|
E|-----------1------------------------------|


G|-------------------------------|-------------------|------------------|
D|------------------11--11--11\--|-------------------|------------------|
A|--4----4----4----/-------------|--3-3-3-3-3-3-3-3--|---6-6-6-6-6-6-6--|
E|-------------------------------|-------------------|------------------|


[Chorus]

G|----------------|--------------5--|----------------|-----------------|
D|--6-----6----6--|------------5----|----------------|--6-----6--------|
A|-----6-----6----|--3-----3--3-----|--4-----4----4--|-----6----6-3----|
E|----------------|-----3-----------|-----4-----4----|--------------4--|


G|----------------|----------------|----------------|-----------------|
D|----------------|--6--5--3----3--|----------------|--1-----1-1-3-5--|
A|--4-----4----4--|-----------3----|--1-----1----1--|-----1-----------|
E|-----4-----4----|----------------|-----1-----1----|-----------------|


G|----------------|--------------5--|----------------|-----------------|
D|--6-----6----6--|------------5----|----------------|--6-----6--------|
A|-----6-----6----|--3-----3--3-----|--4-----4----4--|-----6----6-3----|
E|----------------|-----3-----------|-----4-----4----|--------------4--|


G|----------------|-----------------|-----------------|------------------------|
D|-----3--1--3-5--|--6--5--3--------|-----------------|------2---2-------------|
A|--1-------------|----------3------|--1----1-3----3--|--4---------------------|
E|----------------|------------4-1--|-----1------3----|-------------4---4---4--|


G|--------------------------------------|
D|--------------------------------------|
A|--x--1--1--3--3--3--4--4--4--6--6--6--|
E|--------------------------------------|


G|----------------|--------------5--|--------------6--|-----------------|
D|--6-----6----6--|------------5----|------------6----|--6-----6--------|
A|-----6-----6----|--3-----3--3-----|--4-----4--4-----|-----6----6-3----|
E|----------------|-----3-----------|-----4-----------|--------------4--|


G|----------------|----------------|----------------|-----------------|
D|----------------|--6--5--3----3--|----------------|--1-----1-1-3-5--|
A|--4-----4----4--|-----------3----|--1-----1----1--|-----1-----------|
E|-----4-----4----|----------------|-----1-----1----|-----------------|


G|----------------|--------------5--|------------------|-----------------|
D|--6-----6----6--|------------5----|------------------|--6-----6--------|
A|-----6-----6----|--3-----3--3-----|--4-----4--4--4---|-----6----6-3----|
E|----------------|-----3-----------|-----4------4-----|--------------4--|


G|----------------|-----------------|-----------------|-------------1--|
D|-----3--1--3-5--|--6--5--3--------|-----------------|------2---2-----|
A|--1-------------|----------3------|--1----1-3----3--|--4-------------|
E|----------------|------------4-1--|-----1------3----|----------------|
 

[Outro]

G|----------------|-----|--------------|
D|------2---2-----|--2--|--------------|
A|--4-------------|-----|--4--4--4-----|
E|-------------4--|-----|-----------4--|



****************

/   slide up
\   slide down
x   dead note

****************

in regular sequence!

            
            
Suggest correction
Creating personal tab
Creating personal tab
You can edit any tab online and save it as your Personal.

You can edit, replace or remove any tab part or add personal notes – all changes will be seen only by you.

Personal tabs can be accessed anytime from any device, even offline.
Learn more »
Give kudos to tab author, rate the tab!
1 2 3 4 5
comments
print report bad tab
guest
You may want to rate the tab now too:
select rating
Wanna post a correction for this tab? Suggest correction