Oops, an error
Loading. Please wait.

Allt På Ett Kort tab

version 1
version 1

Whole song

88 views 6 this week
no commentswrite comment
1 2 3 4 5
3 more votes to show rating
add to favorites
×
Save as Personal and add changes to this tab that will be seen only by you. Learn more ›
×
You can save this tab as Personal to edit and correct it or add notes. All changes will be seen only by you. Learn more »
launch autoscroll
font size
0
reset
how to read this tab
guitar tuner
edit
Autoscroll
slow
fast
+/-
esc
set tempo
stop
Author
Unregistered
e|-----------------------------------------------------------------|
B|-----------------------------------------------------------------|
G|-----------------------------------------------------------------|
D|----------------1-1-1-1-1-1-1-1-0-0-0-0-0-0-0-0-0-0-0-0-0-0-0-0--|
A|-----------------------------------------------------------------|
E|-0-0-0-0-0-0-0-0-------------------------------------------------|

e|----------------------------------------------------------------|
B|----------------------------------------------------------------|
G|----------------------------------------------------------------|
D|----------------------------------------------------------------|
A|0-0-0-0-0-0-0-0-2-2-2-2-2-2-2-2-4-4-4-4-4-4-4-4-4-4-4-4-4-4-4-4-|
E|----------------------------------------------------------------|

e|---------------------------------|
B|---------------------------------|
G|---------------------------------|
D|---------------------------------|
A|-0-0-0-0-0-0-0-0-----------------|
E|----------------4-4-4-4-4-4-2-0--|(Etc)

[F] Jag har [C]glömt min första [Bb]sommar
[F]Jag har [C]glömt min [Dm]första vinter med snö
[Bb]Men jag har [C]kvar ett kort av min [F]far

[F]Jag har [C]glömt min första [Bb]fotboll
[F]Men det är [C]svårt att säg' om det [Dm]spelar nån' roll
[Bb]Jag har [C]kvar ett kort av min... [F]

e|-----------------------------------------------------------------|
B|-----------------------------------------------------------------|
G|-----------------------------------------------------------------|
D|----------------1-1-1-1-1-1-1-1-0-0-0-0-0-0-0-0-0-0-0-0-0-0-0-0--|
A|-----------------------------------------------------------------|
E|-0-0-0-0-0-0-0-0-------------------------------------------------|

e|----------------------------------------------------------------|
B|----------------------------------------------------------------|
G|----------------------------------------------------------------|
D|----------------------------------------------------------------|
A|0-0-0-0-0-0-0-0-2-2-2-2-2-2-2-2-4-4-4-4-4-4-4-4-4-4-4-4-4-4-4-4-|
E|----------------------------------------------------------------|

e|---------------------------------|
B|---------------------------------|
G|---------------------------------|
D|---------------------------------|
A|-0-0-0-0-0-0-0-0-----------------|
E|----------------4-4-4-4-4-4-2-0--|(Etc)

[F]Jag har [C]glömt min första [Bb]cykel
[F]Men jag har [C]kvar en minnes[Dm]nyckel av guld
[Bb]Jag har [C]kvar ett kort av min [F]far

[F]Jag [C]minns vår första [Bb]flygtur
[F]och Jag [C]minns en gång en [Dm]regnskur
[Bb]Jag har [C]kvar ett kort av min [F]far

[Bb]Jag har [C]kvar ett kort av min [F]far.....

            
            
Suggest correction
Creating personal tab
Creating personal tab
You can edit any tab online and save it as your Personal.

You can edit, replace or remove any tab part or add personal notes – all changes will be seen only by you.

Personal tabs can be accessed anytime from any device, even offline.
Learn more »
Give kudos to tab author, rate the tab!
1 2 3 4 5
comments
print report bad tab
guest
Wanna post a correction for this tab? Suggest correction