Oops, an error
Loading. Please wait.

Mi Cariñito tab

142 views 3 this week
no commentswrite comment
1 2 3 4 5
3 more votes to show rating
add to favorites
×
Save as Personal and add changes to this tab that will be seen only by you. Learn more ›
×
You can save this tab as Personal to edit and correct it or add notes. All changes will be seen only by you. Learn more »
launch autoscroll
font size
0
reset
how to read this tab
guitar tuner
edit
Autoscroll
slow
fast
+/-
esc
set tempo
stop
Author
Difficulty
Chords:
     E          B          Eb   G#m   C#m
e|---4---(7)-|--7---(2)-|-(6)-|--4--|--4--|
B|---5----9--|--7----4--|--8--|--4--|--5--|
G|---4-or-9--|--8-or-4--|--8--|--4--|--6--|
D|---6----9--|--9----4--|--8--|--6--|--6--|
A|---7----7--|--9----2--|--6--|--6--|--4--|
E|--(0)--(0)-|--7-------|-----|--4--|-----|

[Intro/Riff]
     E             B             Eb            G#m
e|--/16--16-16-16--14-14-----|----------------------------|
B|-----------------------16--|--/16--16-16-16--14-14------|
G|---------------------------|-----------------------16---|
D|---------------------------|----------------------------|
A|---------------------------|----------------------------|
E|---------------------------|----------------------------|

     E             B             Eb            G#m
e|--/16--16-16-16--14-14-----|----------------------------|
B|-----------------------16--|--/16--16-16-16--14-14------|
G|---------------------------|-----------------------16---|
D|---------------------------|----------------------------|
A|---------------------------|----------------------------|
E|---------------------------|----------------------------|

[Bridge]

e|------------------|
B|-----------12-12--|
G|---------13-------|
D|-------13---------|
A|--11-14-----------|
E|------------------|

[Chorus]

E                    B        Eb              G#m
Por lejos que estés cariñito ahí, ahí te seguiré
E                    B        Eb                 G#m
por lejos que andes amorcito ahí, ahí te encontraré

E                    B        Eb              G#m
Por lejos que estés cariñito ahí, ahí te seguiré
E                    B        Eb                 G#m
por lejos que andes amorcito ahí, ahí te encontraré

[Bridge]

e|------------------|
B|-----------12-12--|
G|---------13-------|
D|-------13---------|
A|--11-14-----------|
E|------------------|

[Verse 1]

C#m                                                          E
Eres mi cielo, mi guía, la estrella encendida de esta pobre vida
C#m                          E                    B
otro cariño no tengo te sigo queriendo con el corazón

[Verse 2]

C#m                                                             E
Sólo dejaste un retrato, una flor en el cuarto, una vela en el santo
C#m                        E                    B
y una carta que decía adiós cariñito, adiós corazón

[Chorus]

E                    B        Eb              G#m
Por lejos que estés cariñito ahí, ahí te seguiré
E                    B        Eb                 G#m
por lejos que andes amorcito ahí, ahí te encontraré

E                    B        Eb              G#m
Por lejos que estés cariñito ahí, ahí te seguiré
E                    B        Eb                 G#m
por lejos que andes amorcito ahí, ahí te encontraré

[Riff]

     E             B             Eb            G#m
e|--/16--16-16-16--14-14-----|----------------------------|
B|-----------------------16--|--/16--16-16-16--14-14------|
G|---------------------------|-----------------------16---|
D|---------------------------|----------------------------|
A|---------------------------|----------------------------|
E|---------------------------|----------------------------|

     E             B             Eb            G#m
e|--/16--16-16-16--14-14-----|----------------------------|
B|-----------------------16--|--/16--16-16-16--14-14------|
G|---------------------------|-----------------------16---|
D|---------------------------|----------------------------|
A|---------------------------|----------------------------|
E|---------------------------|----------------------------|

[Bridge]

e|------------------|
B|-----------12-12--|
G|---------13-------|
D|-------13---------|
A|--11-14-----------|
E|------------------|

[Verse 1]

C#m                                                          E
Eres mi cielo, mi guía, la estrella encendida de esta pobre vida
C#m                          E                    B
otro cariño no tengo te sigo queriendo con el corazón

[Verse 2]

C#m                                                             E
Sólo dejaste un retrato, una flor en el cuarto, una vela en el santo
C#m                        E                    B
y una carta que decía adiós cariñito, adiós corazón

[Chorus]

E                    B        Eb              G#m
Por lejos que estés cariñito ahí, ahí te seguiré
E                    B        Eb                 G#m
por lejos que andes amorcito ahí, ahí te encontraré

E                    B        Eb              G#m
Por lejos que estés cariñito ahí, ahí te seguiré
E                    B        Eb                 G#m
por lejos que andes amorcito ahí, ahí te encontraré

[Outro]
  G#m
  Te encontrare
e|----------------|
B|--14h16--14h16--|
G|-------16-------|...
D|----------------|
A|----------------|
E|----------------|
Suggest correction
Creating personal tab
Creating personal tab
You can edit any tab online and save it as your Personal.

You can edit, replace or remove any tab part or add personal notes – all changes will be seen only by you.

Personal tabs can be accessed anytime from any device, even offline.
Learn more »
Give kudos to tab author, rate the tab!
1 2 3 4 5
comments
print report bad tab
guest
You may want to rate the tab now too:
select rating
Wanna post a correction for this tab? Suggest correction