Oops, an error
Loading. Please wait.

Me Equivocaría Otra Vez chords

version 7
version 7

Whole song

Interactive

1,150 views 45 this week
no commentswrite comment
1 2 3 4 5
3 more votes to show rating
add to favorites
×
Save as Personal and add changes to this tab that will be seen only by you. Learn more ›
×
You can save this tab as Personal to edit and correct it or add notes. All changes will be seen only by you. Learn more »
launch autoscroll
font size
0
reset
transpose
0
reset
display chords
guitar tuner
edit
Autoscroll
slow
fast
+/-
esc
set tempo
stop
Author
About this tab version
No capo, original tuning, includes riffs. Was this info helpful? Yes No
Strumming
There is no strumming pattern for this song yet. and get +5 IQ
[Intro] 

Gm

  |------------------|   
  |------------------|   
  |---------------0--|   
  |--------------0---|   
  |1-0---------------|   
  |----1//3----------| x2  


  |---10-|
  |---8--|
  |---7--|
  |------|
  |------|
  |------|



Gm                                                 Bb
Se torció el camino, tú ya sabes que no puedo volver
Dm                      F                    Gm
Son cosas del destino, siempre me quiere morder
Gm                                       Bb
El horizonte se confunde con un negro telón…
Bb       Dm        F                        Gm
y puede ser como decir que se acabó la función.


Cm                 F                   Gm
Ha sido divertido, me equivocaría otra vez
Bb                                            F
quisiera haber querido lo que no he sabido querer
Eb                                             Bb
Quieres bailar conmigo...puede que te pise los pies
F                                    Eb
No soñaré sólo porque me he quedao dormido



Bb                                    F
No voy a despertarme porque salga el sol
Eb               F                     Gm
Ya sé llorar una vez por cada vez que río
Gm        C            Eb         F           Gm
No sé restar, no sé restar tu mitad de mi corazón.


 |-------------------------------|
 |-------------------------------|
 |-------------------------------|
 |-------------------------------|
 |--------3-5--------------------|
 |-3--5-6--------3--5-6-5---1--3-|  x2


Gm                                                 Bb
Puede ser que la respuesta sea no preguntarse por qué?

Dm                      F                 Gm
Perderse por los bares donde se bebe sin sed

Gm                                         Bb
Virgen de la locura, nunca más te voy a rezar

Bb                 Dm        F                      Gm
que me he enterao, de los pecados que me quieres quitar


Cm                 F                     Gm
Será más divertido cuando no me toque perder.

Bb                                           F
Sigo apostando al 5 y cada dos por tres sale 6.

Eb                                                 Bb
Yo bailaría contigo, pero es que estoy sordo de un pie.

F                                      Eb
No soñaré sólo porque me he quedao dormido.



Bb                                    F
No voy a despertarme porque salga el sol

Eb               F                     Gm
Ya sé llorar una vez por cada vez que río

Gm        C            Eb         F           Gm
No sé restar, no sé restar tu mitad a mi corazón.


    Gm             Bb                     Dm        F    Gm

 |-------------------------------------------------------|
 |-------------------------------------------------------|
 |----------------5-7--------7-8-7-7-5//77//5------------|
 |----------5-7-8------------------7-----------//8-7-3//5|
 |--------5-----------8----8------------------8----------|
 |-3--5-6------------------------------------------------|


     Gm                  Bb           Dm       F    Gm
 |----------------------15-------------------6-----------|
 |----8--------11-----11-----8-6-------------6-6//8-6----|
 |---7-------12---//12-----------7-5------7--------------|
 |//8----//12------------------------8-5-8---------------|
 |-------------------------------------------------------|
 |-------------------------------------------------------|


Cm                 F                   Gm
Ha sido divertido, me equivocaría otra vez
Bb                                            F
quisiera haber querido lo que no he sabido querer
Eb                                             Bb
Quieres bailar conmigo...puede que te pise los pies
F                                    Eb
No soñaré sólo porque me he quedao dormido


Bb                                    F
No voy a despertarme porque salga el sol

Eb               F                     Gm
Ya sé llorar una vez por cada vez que río

Gm        C            Eb         F           Gm
No sé restar, no sé restar tu mitad a mi corazón.

         Eb    F                 Gm
no sé restar, tu mitad a mi corazón,
          Eb  F                Gm
no se restar tu mitad a mi corazón.


Gm

 |-------------------------------|
 |-------------------------------|
 |-------------------------------|
 |-------------------------------|
 |--------3-5--------------------|
 |-3--5-6--------3--5-6-5---1--3-| x2

            
            
Suggest correction
Creating personal tab
Creating personal tab
You can edit any tab online and save it as your Personal.

You can edit, replace or remove any tab part or add personal notes – all changes will be seen only by you.

Personal tabs can be accessed anytime from any device, even offline.
Learn more »
Give kudos to tab author, rate the tab!
1 2 3 4 5
comments
print report bad tab
guest
You may want to rate the tab now too:
select rating
Wanna post a correction for this tab? Suggest correction