Oops, an error
Loading. Please wait.

Еen Geldersch Lied tab

127 views 3 this week
no commentswrite comment
1 2 3 4 5
3 more votes to show rating
add to favorites
×
Save as Personal and add changes to this tab that will be seen only by you. Learn more ›
×
You can save this tab as Personal to edit and correct it or add notes. All changes will be seen only by you. Learn more »
launch autoscroll
font size
0
reset
how to read this tab
guitar tuner
edit
Autoscroll
slow
fast
+/-
esc
set tempo
stop
Author
Difficulty
Tuning: E A D G B e

*********************************************
Strumming pattern for rhythm guitar is up-down-up-down-up,
then down-up-down-up-down (5 times in quick succession).

*lead guitar tabs can be found below*

[Intro]

 (first riff, as mentioned below)]
e|-----------------------------------------------------------------------------------|
B|-----------------------------------------------------------------------------------|
G|-----------------------------------------------------------------------------------|
D|-----------------------------------------------------------------------------------|
A|4-4-4-4-4---4-4-4-4-4---4-4-4-4-4---4-4-4-4-4---4-4-4-4-4---4-4-4-4/7-7-7-7-7\2-2-2-2|
E|2-2-2-2-2---2-2-2-2-2---2-2-2-2-2---2-2-2-2-2---2-2-2-2-2---2-2-2-2/5-5-5-5-5\0-0-0-0|


[Verse]

e|-----------------------------------------------------------------------------------| 
B|-----------------------------------------------------------------------------------| 
G|-----------------------------------------------------------------------------------| 
D|-----------------------------------------------------------------------------------| x7
A|4-4-4-4-4---4-4-4-4-4---4-4-4-4-4---4-4-4-4-4---4-4-4-4-4---4-4-4-4/7-7-7-7-7\2-2-2-2| 
E|2-2-2-2-2---2-2-2-2-2---2-2-2-2-2---2-2-2-2-2---2-2-2-2-2---2-2-2-2/5-5-5-5-5\0-0-0-0| 

e|---------------------------------------------------------------------------------------------|
B|---------------------------------------------------------------------------------------------|
G|---------------------------------------------------------------------------------------------|
D|---------------------------------------------------------------------------------------------|
A|2-2-2-2-2---2-2-2-2-2---2-2-2-2-2---2-2-2-2-4---4-4-4-4-4---4-4-4-4-4---4-4-4-4-4---4-4-4-4-2|
E|0-0-0-0-0---0-0-0-0-0---0-0-0-0-0---0-0-0-0-2---2-2-2-2-2---2-2-2-2-2---2-2-2-2-2---2-2-2-2-0| x3

e|---------------------------------------------------------------------------------------------|
B|---------------------------------------------------------------------------------------------|
G|---------------------------------------------------------------------------------------------|
D|---------------------------------------------------------------------------------------------|
A|2-2-2-2-2---2-2-2-2-2---2-2-2-2-2---2-2-2-2-4---4-4-4-4-4---4-4-4-4-4---4-4-4-4-4---4-4-4-4-4|
E|0-0-0-0-0---0-0-0-0-0---0-0-0-0-0---0-0-0-0-2---2-2-2-2-2---2-2-2-2-2---2-2-2-2-2---2-2-2-2-2|

e|-----------------------------------------------------------------------------------| 
B|-----------------------------------------------------------------------------------| 
G|-----------------------------------------------------------------------------------| 
D|-----------------------------------------------------------------------------------| x7
A|4-4-4-4-4---4-4-4-4-4---4-4-4-4-4---4-4-4-4-4---4-4-4-4-4---4-4-4-4/7-7-7-7-7\2-2-2-2| 
E|2-2-2-2-2---2-2-2-2-2---2-2-2-2-2---2-2-2-2-2---2-2-2-2-2---2-2-2-2/5-5-5-5-5\0-0-0-0| 

e|---------------------------------------------------------------------------------------------|
B|---------------------------------------------------------------------------------------------|
G|---------------------------------------------------------------------------------------------|
D|---------------------------------------------------------------------------------------------|
A|2-2-2-2-2---2-2-2-2-2---2-2-2-2-2---2-2-2-2-4---4-4-4-4-4---4-4-4-4-4---4-4-4-4-4---4-4-4-4-2|
E|0-0-0-0-0---0-0-0-0-0---0-0-0-0-0---0-0-0-0-2---2-2-2-2-2---2-2-2-2-2---2-2-2-2-2---2-2-2-2-0| x3

e|---------------------------------------------------------------------------------------------|
B|---------------------------------------------------------------------------------------------|
G|---------------------------------------------------------------------------------------------|
D|---------------------------------------------------------------------------------------------|
A|2-2-2-2-2---2-2-2-2-2---2-2-2-2-2---2-2-2-2-4---4-4-4-4-4---4-4-4-4-4---4-4-4-4-4---4-4-4-4-4|
E|0-0-0-0-0---0-0-0-0-0---0-0-0-0-0---0-0-0-0-2---2-2-2-2-2---2-2-2-2-2---2-2-2-2-2---2-2-2-2-2|

e|-----------------------------------------------------------------------------------| 
B|-----------------------------------------------------------------------------------| 
G|-----------------------------------------------------------------------------------| 
D|-----------------------------------------------------------------------------------| x4
A|4-4-4-4-4---4-4-4-4-4---4-4-4-4-4---4-4-4-4-4---4-4-4-4-4---4-4-4-4/7-7-7-7-7\2-2-2-2| 
E|2-2-2-2-2---2-2-2-2-2---2-2-2-2-2---2-2-2-2-2---2-2-2-2-2---2-2-2-2/5-5-5-5-5\0-0-0-0| 


[Outro]

e|-------------------------------------------------------------------------------------------------------| 
B|-------------------------------------------------------------------------------------------------------| 
G|-------------------------------------------------------------------------------------------------------| 
D|-------------------------------------------------------------------------------------------------------| 
A|4-4-4-4-4---4-4-4-4-4---4-4-4-4-4---4-4-4-4-4---4-4-4-4-4---4-4-4-4/7-7-7-7-7\2-2-2-2-4---2-4---2-4---2-4| 
E|2-2-2-2-2---2-2-2-2-2---2-2-2-2-2---2-2-2-2-2---2-2-2-2-2---2-2-2-2/5-5-5-5-5\0-0-0-0-2---0-2---0-2---0-2| 

~~~~~~~~~~~~~~~~~~~~~~~~
     [Lead guitar]
[Start after first riff on rhythm guitar and at 1:59]

e|2--0-5-2--0-5-2/5/7/9\7\5\4\2|                           |
B|-----------------------------|                           |
G|-----------------------------|                           |
D|-----------------------------| x2                        |
A|-----------------------------|                           |
E|-----------------------------|                           |
                                                           |
[Song time is 1:00, repeated on 2:24]                      |
e|2--0-5-2--0-5-2/5/7/9\7\5\4\7|                           |
B|-----------------------------|                           |
G|-----------------------------|                           |
D|-----------------------------|                           |
A|-----------------------------|                           |
E|-----------------------------|                           |
                                                           |
e|0--0-4-5-7--7-5/9\2--9-9-9-7-5-7-5-4-7---7-5-7-9-2|      |
B|--------------------------------------------------|      |
G|--------------------------------------------------|      |
D|--------------------------------------------------|      |
A|--------------------------------------------------|      |
E|--------------------------------------------------|      |
                                                           |
e|9-9-9-7-5-7-5-4-7---7-5-7-9-2|                           |
B|-----------------------------|                           |
G|-----------------------------|                           |
D|-----------------------------|                           |
A|-----------------------------|                           |
E|-----------------------------|                           | x2
_______

[Outro, starts at 3:24]
e|2--0-5-2--0-5-2/5/7/9\7\5\4\2|
B|-----------------------------|
G|-----------------------------|
D|-----------------------------|
A|-----------------------------|
E|-----------------------------|


************************************

| /  Slide up
| \  Slide down


************************************

            
            
Suggest correction
Creating personal tab
Creating personal tab
You can edit any tab online and save it as your Personal.

You can edit, replace or remove any tab part or add personal notes – all changes will be seen only by you.

Personal tabs can be accessed anytime from any device, even offline.
Learn more »
Give kudos to tab author, rate the tab!
1 2 3 4 5
comments
print report bad tab
guest
You may want to rate the tab now too:
select rating
Wanna post a correction for this tab? Suggest correction